PrimaNota.ru - самый крупный в мире бесплатный архив песенных текстов, аккордов, табулатур и нот


Motor Ace - Death Defy - аккорды и текст, таба, видео

Регистрация Запомнить меня
Войти через:  Facebook Google Twitter Vk Yandex Mail.ru

Motor Ace - Death Defy - аккорды и текст, таба, видео

Печатать
Просмотров: 123
Death Defy
Motor Ace
Death Defy by Motor Ace
(Chorded and Tabbed by ThunDeRheD.)
(This is the closest I've come up with so far, I don't feel it's 100% accurate but it's close.
Please comment or send corrections to ThunDeRheD@hotmail.com. Enjoy!)

CAPO I Standard Tuning  (/ = Slide, - = hammer on or pull off)

Fig 1:
E----0-----------------------------------|
B----0-----------------------------------|
G----2-----------------------------------|
D----3-----------------------------------|
A----3-----------------------------------|
E----1-----------------------------------|

Riff 1:  E  E7  Esus4    A   Asus4  D    D   Cadd9  Cadd9

Riff 2:
E----------------------------------0-------------------------------------------0------|
B----------------------------------3----------------------------------2--------0------|
G-------------2-----------------------------------------------------------------------|
D-----------------------2------------------------------------3------------------------|
A---0--------------------------------------------------------3------------------------|
E------------------------------------------------1------------------------------------|

Riff 3:
E----------------------------------0------|
B----------------------------------0------|
G-------------------------1---------------|
D-----------------------------------------|
A---------------2-------------------------|
E-----0-----------------------------------|

Riff 4:
A - Asus4  C#5 C#5    G# G# / Ab  D5 D5

INTRO:
(Play Fig 1 and let ring x1)
(Play Riff 1 and let ring x4)

VERSE 1.1(play Riff 1 and palm mute x4):
Starting to get my head in your space
Starting to lose track of the weekdays
Starting to cook my brain in five ways
I'm trying to be cool

VERSE 1.2 (play Riff 1 and palm mute x4)
Starting to lose my inhibitions
Starting to make some bad decisions
I'm listening to all your cr*p opinions
I'm trying to be cool

A (palm mute)

PRE CHORUS (play Riff 2 and 3 then Riff 2 again):
A      F       E
Don't take me over
              E    (palm mute)
Just take me there
(Scrape)  A    A  Asus4 - A   G   A  A - Asus4 A
     Like I planned
                        Dadd9
I've gone as far as I could go
        A  Asus4 A     G     A        Dadd9
And now the feeling's starting to take hold
              A         Asus4
But I'll death defy to make you cry
                                         Bsus4
And find out what you know
A                  Asus4                  D                    Dadd9
Would you please death defy with me too

VERSE 2.1 (play Riff1 and palm mute x4):
Starting to tune in to your station
Starting to lose my obligation
I'm talking in tongues and celebration
Trying to be cool

VERSE 2.2 (play Riff 1 and palm mute x4)
Starting to get my head in your space
Starting to lose track of the weekdays
Starting to cook my brain in five ways
I'm trying to be cool

PRE CHORUS (play Riff 2 and 3 then Riff 2 again)

E (palm mute)

CHORUS #2
(Scrape)  A    A  Asus4 - A   G   A  A - Aus4 A
     Like I planned
                                              Dadd9
I've gone as far as I could go
        A  Asus4 A     G     A               Dadd9
And now the feeling's starting to take hold
              A         Asus4
But I'll death defy to make you cry
                                         Bsus4
And find out what you know
A                  Asus4                  D                    Dadd9
Would you please death defy with me too
A                  Asus4                  D             Dadd9
Would you please death defy with me too

BRIDGE/SOLO:
(play Riff 4 x6)

PRE CHORUS (play Riff 2 and 3 then Riff  2 again)

CHORUS #3
(Scrape)  A    A  Asus4 - A   G   A  A - Aus4 A
     Like I planned
                                              Dadd9
I've gone as far as I could go
        A  Asus4 - A     G     A                            Dadd9
And now the feeling's starting to take hold
              A         Asus4
But I'll death defy to make you cry
                                         Bsus4
And find out what you know
A                  Asus4                  D                    Dadd9
Would you please death defy with me too
A                  Asus4                  D                    Dadd9
Would you please death defy with me too

A                  Asus4                  D                    Dadd9
Would you please                  Would you please
A                  Asus4                  D                    Dadd9
Would you please                  Would you pleeeeeeeeeeeeease
D                    Dadd9 (hold)
Добавлено: 22.07.2015
Другие материалы по этой песне:
  • Аккорды и текст

Страница создана 18.04.2012
http://primanota.ru/motor-ace/death-defy-chords.htm
Привет, Гость.
Предлагаем пройти революционный курс по гитаре.
Подарок от PrimaNota.Ru, забирай!