PrimaNota.ru - самый крупный в мире бесплатный архив песенных текстов, аккордов, табулатур и нот


Motor Ace - Chairman Of The Board - аккорды и текст, таба, видео

Регистрация Запомнить меня
Войти через:  Facebook Google Twitter Vk Yandex Mail.ru

Motor Ace - Chairman Of The Board - аккорды и текст, таба, видео

Печатать
Просмотров: 134
Chairman Of The Board
Motor Ace
Song: chairman of the board
Artist: Motor ace
Album: Five star laundry
Track number: 8
Tabed by: julian O'Loughlin
E-mail: julian_sweet@hotmail.com
Date: 03/Feb/2002

Intro x 4
e|---------------------------------------------------------------------------|
B|---------------------------------------------------------------------------|
G|--------------------7------------------------------------------------------|
D|-2--4--7------2--4--7------------------------------------------------------|
A|-2--4--7------2--4--5------------------------------------------------------|
E|-0--2--5------0--2---------------------------------------------------------|

Verse x 1
e|---------------------------------------------------------------------------|
B|---------------------------------------------------------------------------|
G|-7-7-7-7-7-7--7-7-7-7-7-7-7-7-7-7-7-7--7-7-7-7-7-7-------------------------|
D|-7-7-7-7-7-7--7-7-7-7-7-7-7-7-7-7-7-7--7-7-7-7-7-7-------------------------|
A|-5-5-5-5-5-5--5-5-5-5-5-5-5-5-5-5-5-5--5-5-5-5-5-5-------------------------|
E|---------------------------------------------------------------------------|
   * * * * * *  * * * * * * * * * * * *  * * * * * *

e|---------------------------------------------------------------------------|
B|---------------------------------------------------------------------------|
G|-7-7-7-7-7-7--7-7-7-7-7-7-7-7-7-7-7-7--7-7-7-7-7-7-------------------------|
D|-7-7-7-7-7-7--7-7-7-7-7-7-7-7-7-7-7-7--7-7-7-7-7-7-------------------------|
A|-5-5-5-5-5-5--5-5-5-5-5-5-5-5-5-5-5-5--5-5-5-5-5-5-------------------------|
E|---------------------------------------------------------------------------|
   * * * * * *  * * * * * * * * * * * *  * * * * * *

e|---------------------------------------------------------------------------|
B|---------------------------------------------------------------------------|
G|-------------------------------------------77-7-7--77-7-7--77-7-7--77-7-7--|
D|-7-7-7-7-4-4-4-4-7-7-7-7-4-4-4-4-7-7--7-7--77-7-7--77-7-7--77-7-7--77-7-7--|
A|-7-7-7-7-4-4-4-4-7-7-7-7-4-4-4-4-7-7--7-7--55-5-5--55-5-5--55-5-5--55-5-5--|
E|-5-5-5-5-2-2-2-2-5-5-5-5-2-2-2-2-5-5--5-5----------------------------------|
                                             **      **      **      **
e|---------------------------------------------------------------------------|
B|---------------------------------------------------------------------------|
G|-------------------------------------------77-7-7--77-7-7--77-7-7--77-7-7--|
D|-7-7-7-7-4-4-4-4-7-7-7-7-4-4-4-4-7-7--7-7--77-7-7--77-7-7--77-7-7--77-7-7--|
A|-7-7-7-7-4-4-4-4-7-7-7-7-4-4-4-4-7-7--7-7--55-5-5--55-5-5--55-5-5--55-5-5--|
E|-5-5-5-5-2-2-2-2-5-5-5-5-2-2-2-2-5-5--5-5----------------------------------|
                                             **      **      **      **

e|---------------------------------------------------------------------------|
B|---------------------------------------------------------------------------|
G|-77-7-7--77-7-7------------------------------------------------------------|
D|-77-7-7--77-7-7-5-5-5-5-5-5-5-5--------------------------------------------|
A|-55-5-5--55-5-5-5-5-5-5-5-5-5-5-------------- pick scrape -----------------|
E|----------------3-3-3-3-3-3-3-3--->->->->->->->->->->->->->->->->->->->->--|
   **      **     * * * * * * * *

Chorus x 4
e|---------------------------------------------------------------------------|
B|---------------------------------------------------------------------------|
G|---------------------------------------------------------------------------|
D|-7-7-7--4-4-4--5-5-5-5-5-5-------------------------------------------------|
A|-7-7-7--4-4-4--5-5-5-5-5-5-------------------------------------------------|
E|-5-5-5--2-2-2--3-5-5-5-5-3-------------------------------------------------|

Intro x 4
Verse x 1

Chorus x 8

Solo x 22 (first 14 times is played on own)
e|---------------------------------------------------------------------------|
B|-12-12-12-9-9-9-9-10-10-10-10-10-10-10-10----------------------------------|
G|---------------------------------------------------------------------------|
D|---------------------------------------------------------------------------|
A|---------------------------------------------------------------------------|
E|---------------------------------------------------------------------------|

Chorus x 8

Intro x 4
     
Добавлено: 01.12.2013
Другие материалы по этой песне:
  • Аккорды и текст

Страница создана 17.07.2012
http://primanota.ru/motor-ace/chairman-of-the-board-chords.htm
Привет, Гость.
Предлагаем пройти революционный курс по гитаре.
Подарок от PrimaNota.Ru, забирай!