PrimaNota.ru - самый крупный в мире бесплатный архив песенных текстов, аккордов, табулатур и нот


Motograter - Prophecies - текст песни, бас-таба, видео

Регистрация Запомнить меня
Войти через:  Facebook Google Twitter Vk Yandex Mail.ru

Motograter - Prophecies - текст песни, бас-таба, видео

Печатать
Просмотров: 99
credit to songsterr for sheet tabs

rest for intro bit
G|---------------------------|
D|---------------------------|
A|----------------------4444-|
E|-5--2-3--2--5--2-3--2------| X2

G|---------------|    |------------|    |--------------------|
D|---------------|    |------------|    |--------------------|
A|---------------|    |------------|    |--------------------|
E|-5--2-3--2-3-2-| X3 |-2222--2222-| X1 |-3---2~-------------| X6

G|-----------------|
D|-----------------|
A|-----------------|
E|-22222222222222--| X8

G|---------------|    |------------|    |--------------------|
D|---------------|    |------------|    |--------------------|
A|---------------|    |------------|    |--------------------|
E|-5--2-3--2-3-2-| X3 |-2222--2222-| X1 |-3---2~-------------| X6

G|-----------------|
D|-----------------|
A|-----------------|
E|-22222222222222--| X8

G|---------|    |---------|     ]X3
D|---------|    |---------|     ]X3
A|---------|    |---------|     ]X3
E|-3---2---| X3 |-3---1---| X1  ]X3

rest 4 bars
G|-----------------|
D|-----------------|
A|-----------------|
E|-22222222222222--| X8

G|---------------|    |------------|   
D|---------------|    |------------|   
A|---------------|    |------------|   
E|-5--2-3--2-3-2-| X3 |-2222--2222-| X1

thats it thanks
Добавлено: 23.07.2013
Другие материалы по этой песне:

Страница создана 27.05.2012
http://primanota.ru/motograter/prophecies-chords.htm
Привет, Гость.
Предлагаем пройти революционный курс по гитаре.
Подарок от PrimaNota.Ru, забирай!