PrimaNota.ru - самый крупный в мире бесплатный архив песенных текстов, аккордов, табулатур и нот


Motley Crue - Uncle Jack - текст песни, таба, видео

Регистрация Запомнить меня
Войти через:  Facebook Google Twitter Vk Yandex Mail.ru

Motley Crue - Uncle Jack - текст песни, таба, видео

Печатать
Просмотров: 215
Song: Uncle Jack
Artist: Motley Crue
Album: Motley Crue (1994)
As tabbed by Joe Muggah
joe_the_man3@hotmail.com

Dropped D and tuned down a step

Verse
d----------------------------------------------------------
A----------------------------------------------------------
F--2--2--2--2--2--2--1--0--2--2--2--2--2-------------------
C--3--0--0--3--0--0--------3--0--0--3--0-------------------
G----------------------------------------------------------
C----------------------------------------------------------

Riff 1 (Guitar 2)
d----------------------------------------------------------
A----------------------------------------------------------
F----------------------------------------------------------
C--5--6-------5-5--4-------5--5--------5-5--4--------------
G--5--5-------5-5--5-------5--5--------5-5--5--------------
C----------------------------------------------------------

Pre-Chorus
d----------------------------------------------------------
A----------------------------------------------------------
F----------------------------------------------------------
C--------------------------------------------------------5-
G--3h4h5--5--5--5--5-5-------------3h4h5--5--5---5--5-5--5-
C-----------------------3-/-5-\-3------------------------5-
("Lock you away behind cast iron doors...")

(continued)
d----------------------------------------------------------
A--6-------------------------------------------------------
F--7------------------------10---7---5---------------------
C--5------------------------10---7---5---7---5-------------
G------3h4h5--5--5--5--5-5---8---5---3---7---5-------------
C----------------------------------------7---5-------------

Chorus A (Guitar 1)
d----------------------------------------------------------
A----------------------------------------------------------
F-----------------------------------------------0----------
C--7---------------------7--------5m--4m--3-----------5----
G--7---------------------7--------5m--4m--3---3-------5----
C--7----5^----4----5^----7----5^--5m--4m--3-----------5----
("Uncle Jack...can you hear them still screaming...")

(continued)
d----------------------------------------------------------
A----------------------------------------------------------
F----------------------------------------------------------
C--7---------------------7---10---10m--9m--8----8m--7m--6--
G--7---------------------7---10---10m--9m--8----8m--7m--6--
C--7----5^----4----5^----7---10---10m--9m--8----8m--7m--6--

Chorus B (Guitar 2, played over the last bit of the chorus)
d----------------------------------------------------------
A----------------------------------------------------------
F--------10-----------8h10-8-------------------------------
C------8---------------------6-----------------------------
G----8-------------6---------------------------------------
C--8-------------6-----------------------------------------

Riff 2 (Guitar 2, very hard to hear)
d--------------------4--3----------------------------------
A--6--3--3--6--3--3--------6--3--3--6--3-------------------
F----------------------------------------------------------
C----------------------------------------------------------
G----------------------------------------------------------
C----------------------------------------------------------

Bridge A (Guitar 1)
d----------------------------------------------------------
A----------------------------------------------------------
F---------7--7--7--7--7--7--7----------7--7--7--7--7--7--7-
C---------7--7--7--7--7--7--7----------7--7--7--7--7--7--7-
G--3h4h5--5--5--5--5--5--5--5---3h4h5--5--5--5--5--5--5--5-
C----------------------------------------------------------

Bridge B (Guitar 2)
d----------------------------------------------------------
A-----------------------8\--------8\--------8\-------------
F--7-----7-----7\-------7\--------7\--------7\-------------
C--7-----7-----7\------------------------------------------
G--5-----5-------------------------------------------------
C----------------------------------------------------------

Solo
d----------------------------8-----------------------------
A---------10v---5/7--8-8-8-8---10-----10---8---6---5-------
F--9p7-----------------------------------9---7---5---4-----
C------7---------------------------------------------------
G----------------------------------------------------------
C----------------------------------------------------------

(continued)
d----------------------------------------------3-/-5-\-3---
A----------------------------------------------------------
F--5h7p5\4--5p4p2p0----------------------------------------
C-------------------h3p2p0---------------------------------
G--------------------------h3-----0m--2m--3m---------------
C----------------------------------------------------------

(continued)
d--5---7---8---8/10-8---12p10p8-10p8--12p10p8-10p8--12p10--
A----5---7---8---------------------------------------------
F----------------------------------------------------------
C----------------------------------------------------------
G----------------------------------------------------------
C----------------------------------------------------------

(continued)
d--6h8p6h8p6h8p6h8p6h8-\-------15h17-15h17-15h17-15h17-----
A-------------------------0--------------------------------
F-------------------------0--------------------------------
C----------------------------------------------------------
G----------------------------------------------------------
C----------------------------------------------------------

(continued)
d--15h17-15h17-17---17-17-17-19-19-19-20-20-20-22-22-22-20-
A----------------------------------------------------------
F----------------------------------------------------------
C----------------------------------------------------------
G----------------------------------------------------------
C----------------------------------------------------------

(continued)
d--20-20-19-19-19-------12-------10-------8-------7--------
A-----------------17-\-----13-------12------10------8------
F-----------------------------14-------12------10-----9----
C----------------------------------------------------------
G----------------------------------------------------------
C----------------------------------------------------------

(continued)
d--7h8h10--7p5----------------------------0--------0--0--0-
A---------------6/8\6--8/10\8--10/12\10--12/13\12-10-10-10-
F----------------------------------------------------------
C----------------------------------------------------------
G----------------------------------------------------------
C----------------------------------------------------------

(continued)
d---0-----0--0------0---0--------0--12----10---------------
A--12/13-15-15/17v-----12/13\12-10-----13----12--11^V------
F----------------------------------------------------------
C----------------------------------------------------------
G----------------------------------------------------------
C----------------------------------------------------------

Outro 1
d----------------------------------------------------------
A----------------------------------------------------------
F----------------------------------------------------------
C--7---------------------7---10---10m--9m--8v----5m--4m--3-
G--7---------------------7---10---10m--9m--8v----5m--4m--3-
C--7----5^----4----5^----7---10---10m--9m--8v----5m--4m--3-

Outro 2
d----------------------------------------------------------
A----------------------------------------------------------
F----------------------------------------------------------
C--3^---0---0---0h3h5p3---0---0---0------------------------
G--3^---0---0---0h3h5p3---0---0---0------------------------
C--3^---0---0---0h3h5p3---0---0---0------------------------


Intro (some kind of backwards guitar loop)
Verse
Verse, Riff 1
Pre-chorus
Chorus A, B
Verse, Riff 2
Pre-Chorus
Chorus A, B
Bridge A, B
Chorus A, Solo
Chorus A, B
Outro 1
Outro 2
Добавлено: 05.05.2012
Другие материалы по этой песне:
  • Аккорды и текст

Страница создана 05.05.2012
http://primanota.ru/motley-crue/uncle-jack-chords.htm
Привет, Гость.
Предлагаем пройти революционный курс по гитаре.
Подарок от PrimaNota.Ru, забирай!