PrimaNota.ru - самый крупный в мире бесплатный архив песенных текстов, аккордов, табулатур и нот


Motley Crue - Too Fast For Love (album) - таба, видео

Регистрация Запомнить меня
Войти через:  Facebook Google Twitter Vk Yandex Mail.ru

Motley Crue - Too Fast For Love (album) - таба, видео

Печатать
Просмотров: 104
Band - Motley Crue
Album - Too Fast For Love

1. Live Wire
2. Come on and Dance
3. Public Enemy #1
4. Merry-Go-Round
5. Take Me to the Top
6. Piece Of Your Action
7. Starry Eyes
8. Too Fast for Love
9. On With the Show
10. Toast of the Town
11. Tonight (We Need a Lover)
12. Too Fast for Love (Alt. Intro)
13. Stick to Your Guns


1. LIVE WIRE
drop D tuning- DGCFAD

x- palm mute
PM- palm mute
nh- natural harmonic
b- bend
p- pull off
\- slide up
^- use bar
~- let ring
\/\/- pick scrape

intro
       PM             PM            PM
d-----------------------------------------------------|
g-----------------------------------------------------|
c--5-------------5-----------5--------------5-5-x-7-7-|
f--5-------------5-----------5--------------5-5-x-7-7-|
a----0-0-0-0-0-----0-0-0-0-0---0-0-0-0-0-0------------|
d-----------------------------------------------------|

         PM          PM            PM     nh-----------------|
d------------------------------------------------------------|
g---------------------------------------------------------5--|
c--5------------5-----------5------------------------5-5-----|
f--5------------5-----------5--------------5----5--5---------|
a----0-0-0-0-0----0-0-0-0-0---0-0-0-0-0-0----5---------------|
d------------------------------------------------------------|

        PM           PM           PM
d----------------------------------------------------|
g----------------------------------------------------|
c--5------------5-----------5--------------5-5-x-7-7-|
f--5------------5-----------5--------------5-5-x-7-7-|
a----0-0-0-0-0----0-0-0-0-0---0-0-0-0-0-0------------|
d----------------------------------------------------|

        PM             PM        PM
d------------------------------------------------------------|
g------------------------------------------------------------|
c--5-------------5-----------5---------7b--5-----------------|
f--5-------------5-----------5-----------------7-5-----------|
a----0-0-0-0-0-----0-0-0-0-0---0-0-0----------------7-5------|
d--------------------------------------------------------8-5-|

verse
         PM           PM           PM          PM
d---------------------------------------------------------------|
g---------------------------------------------------------------|
c--5-------------5------------5--------------7-----7-x--5-------|
f--5-------------5------------5--------------7-----7-x--5-------|
a-----0-0-0-0-0----0-0-0-0-0----0-0-0-0-0-0----0-0--------------|
d----------------------------------------------------------5--7-|

        PM             PM          PM         PM
d----------------------------------------------------------|
g----------------------------------------------------------|
c--5------------5------------5--------------7-----7-x------|
f--5------------5------------5--------------7-----7-x------|
a----0-0-0-0-0-----0-0-0-0-0---0-0-0-0-0-0----0-0----------|
d------------------------------------------------------5-7-|

pre chorus
        PM              PM          PM         PM
d------------------------------------------------------------------------------|
g------------------------------------------------------------------------------|
c-5-------------5-----------5-------------7-----7-x----------------------------|
f-5-------------5-----------5-------------7-----7-x--------10------------------|
a----0-0-0-0-0----0-0-0-0-0---0-0-0-0-0-0---0-0------6-7---8---8p7-------------|
d-------------------------------------------------------------------10-8--10-7-|

d-------------------------------|
g-------------------------------|
c---------------------------7\--|
f--12-----------------------7\--|
a--10----10p9---------------5\--|
d-------------12-10---12-8\-----|

chorus- x8
  PM          PM     PM    PM
d-------------------------------|
g-------------------------------|
c-------5--7------5-5---7-------|
f-------7--9------7-7---9-------|
a--0-0--------0-0-----0---0-0-0-|
d-------------------------------|

interlude
       PM             PM            PM
d-----------------------------------------------------|
g-----------------------------------------------------|
c--5-------------5-----------5--------------5-5-x-7-7-|
f--5-------------5-----------5--------------5-5-x-7-7-|
a----0-0-0-0-0-----0-0-0-0-0---0-0-0-0-0-0------------|
d-----------------------------------------------------|

       PM             PM            PM       nh
d------------------------------------------------------------|
g------------------------------------------------------------|
c--5-------------5-----------5-------------------------------|
f--5-------------5-----------5-------------------------------|
a----0-0-0-0-0-----0-0-0-0-0---0-0-0-0-0-0---5^-\pick slide\-|
d------------------------------------------------------------|

      PM             PM         PM
d--------------------------------------------------------|
g--------------------------------------------------------|
c--5-------------5-----------5-------7b--5---------------|
f--5-------------5-----------5-------------7-5-----------|
a----0-0-0-0-0-----0-0-0-0-0---0-0-0------------7-5------|
d----------------------------------------------------8-5-|

gtr 2- a few pull ups with the bar give you the whining effect
d----------------------------------------------------------|
g----------------------------------------------------------|
c------------------------------------7b^---7^-5^-----------|
f-----------------------------------------------7-5--------|
a----------------------------------------------------7-5-\-|
d----------------------------------------------------------|

verse
         PM           PM           PM          PM
d---------------------------------------------------------------|
g---------------------------------------------------------------|
c--5-------------5------------5--------------7-----7-x--5-------|
f--5-------------5------------5--------------7-----7-x--5-------|
a-----0-0-0-0-0----0-0-0-0-0----0-0-0-0-0-0----0-0--------------|
d----------------------------------------------------------5--7-|

        PM             PM          PM         PM
d----------------------------------------------------------|
g----------------------------------------------------------|
c--5------------5------------5--------------7-----7-x------|
f--5------------5------------5--------------7-----7-x------|
a----0-0-0-0-0-----0-0-0-0-0---0-0-0-0-0-0----0-0----------|
d------------------------------------------------------5-7-|

      PM             PM            PM
d-----------------------------------------------------|
g-----------------------------------------------------|
c--5-------------5-----------5--------------5-5-x-7-7-|
f--5-------------5-----------5--------------5-5-x-7-7-|
a----0-0-0-0-0-----0-0-0-0-0---0-0-0-0-0-0------------|
d-----------------------------------------------------|

pre chorus
        PM              PM          PM         PM
d-----------------------------------------------------------------------------|
g-----------------------------------------------------------------------------|
c-5------------5-----------5-------------7-----7-x----------------------------|
f-5------------5-----------5-------------7-----7-x--------10------------------|
a----0-0-0-0-0---0-0-0-0-0---0-0-0-0-0-0----0-0------6-7---8--8p7-------------|
d-----------------------------------------------------------------10-8---10-7-|

d-------------------------------|
g-------------------------------|
c---------------------------7\--|
f--12-----------------------7\--|
a--10----10p9---------------5\--|
d-------------12-10---12-8\-----|

chorus- x8
  PM          PM     PM    PM
d-------------------------------|
g-------------------------------|
c-------5--7------5-5---7-------|
f-------7--9------7-7---9-------|
a--0-0--------0-0-----0---0-0-0-|
d-------------------------------|

bridge- slow with little distortion
d----------------------------------------------------|
g--5-------------------------------------------------|
c--5--------------12--------------10--------------12-|
f--7--------------12--------------10--------------12-|
a----\/\/\/\/\/\/-10-\/\/\/\/\/\/-8--\/\/\/\/\/\/-10-|
d----------------------------------------------------|

softer with less distortion
d------------------------------------------------|
g--5--------------3--------------1-------------3-|
c--5--------------4--------------2-------------4-|
f--7--------------5--------------3-------------5-|
a------------------------------------------------|
d------------------------------------------------|

d-----------------------------------------------------------------|
g--5--------------3--------------1-------------3------------------|
c--5--------------4--------------2-------------4------------------|
f--7--------------5--------------3-------------5--x\-\/\/\/\/\/\/-|
a-----------------------------------------------------------------|
d-----------------------------------------------------------------|

chorus- x4
  PM          PM     PM    PM
d-------------------------------|
g-------------------------------|
c-------5--7------5-5---7-------|
f-------7--9------7-7---9-------|
a--0-0--------0-0-----0---0-0-0-|
d-------------------------------|

x4                                                play at the end of 4th time
d-------------------------------------------------|----------------------|
g-------------------------------------------------|----------------------|
c-------------------------------------------------|--------------------5-|
f-------------------------------------------------|--------------------5-|
a--3---2---0---2-3~------2------3---5---3---2---0-|-2---3---5--3--2--0---|
d-------------------------------------------------|----------------------|

gtr 2,  play these 4 times alternating, starting at the beginning of each riff
d-------------------------|------------------------|
g-------------------------|------------------------|
c--5--------------------5-|--5-------------------5-|
f--7--------------------5-|--5-------------------5-|
a-------------------------|------------------------|
d-------------------------|------------------------|

outro
       PM             PM            PM
d-----------------------------------------------------|
g-----------------------------------------------------|
c--5-------------5-----------5--------------5-5-----7-|
f--5-------------5-----------5--------------5-5-----7-|
a----0-0-0-0-0-----0-0-0-0-0---0-0-0-0-0-0------------|
d-----------------------------------------------------|

      PM             PM            PM
d-----------------------------------------------------|
g-----------------------------------------------------|
c--5-------------5-----------5--------------5-5-----7-|
f--5-------------5-----------5--------------5-5-----7-|
a----0-0-0-0-0-----0-0-0-0-0---0-0-0-0-0-0------------|
d-----------------------------------------------------|

      PM             PM            PM
d-----------------------------------------------------|
g-----------------------------------------------------|
c--5-------------5-----------5--------------5-5-----7-|
f--5-------------5-----------5--------------5-5-----7-|
a----0-0-0-0-0-----0-0-0-0-0---0-0-0-0-0-0------------|
d-----------------------------------------------------|

      PM             PM            PM
d----------------------------------------------------------------------|
g----------------------------------------------------------------------|
c--5-------------5-----------5--------------5--------------------------|
f--5-------------5-----------5--------------5---------------------2--2-|
a----0-0-0-0-0-----0-0-0-0-0---0-0-0-0-0-0-------0--0--2--3--2----0--0-|
d----------------------------------------------3---------------3-------|

2. COME ON AND DANCE
Drop D tuning


(Intro)- PM all open D's
-------------------------------------------------|
-------------------------------------------------|
-------------------------------------------------|
--------7-----6--------7-----6-----7-----4--4--4-|
--------5-----4--------5-----4-----5-----2--2--2-|
--0--0-----0-----0--0-----0-----0-----0----------|

-------------------------------------------------|
-------------------------------------------------|
-------------------------------------------------|
-------7----6--------7-------6-----7-------------|
-------5----4--------5-------4-----5-------------|
--0--0----0-----0--0-----0-----0------3--2--0--0-|

---------------------------------------------|
---------------------------------------------|
---------------------------------------------|
--------7-----6--------7----6----7-----4-4-4-|
--------5-----4--------5----4----5-----2-2-2-|
--0--0-----0-----0--0-----0----0----0--------|

---------------------------------------------|
---------------------------------------------|
---------------------------------------------|
--------7-----6--------7-----6-----7----/----|
--------5-----4--------5-----4-----5----/----|
--0--0-----0-----0--0-----0-----0-------/----|

(Verse)
---------------------------------------------------------|
---------------------------------------------------------|
---------------------------------------------------------|
--2--2--------7----2--2--------7----2--2--------7--------|
--2--2--------5----2--2--------5----2--2--------5-----7--|
--0--0-----0-------0--0-----0-------0--0--0--0--------5--|

---------------------------------------------------------|
---------------------------------------------------------|
---------------------------------------------------------|
---2--2--------7----2--2--------7----2--2--------7-------|
---2--2--------5----2--2--------5----2--2--------5-----7-|
---0--0-----0-------0--0-----0-------0--0--0--0--------5-|

--------------------------------|
--------------------------------|
--------------------------------|
---7------4-------7-------------|
---5------2-------5-------------|
------0-------0---------3--2--3-|

(Chorus) PM all open D's
-------------------------------------------------|
-------------------------------------------------|
-------------------------------------------------|
-------7------6---------7-----6------7-----4-4-4-|
--2----5------4---------5-----4------5-----2-2-2-|
--0--------0------0--0-----0------0------0-------|

-------------------------------------------------|
-------------------------------------------------|
-------------------------------------------------|
--------7-----6--------7-----6-----7-------------|
--------5-----4--------5-----4-----5-------------|
--0--0-----0-----0--0-----0-----0-----3--2--0--0-|

-------------------------------------------------|
-------------------------------------------------|
-------------------------------------------------|
-----7--------6-----7-----6-----7-----4--4--4----|
-----5--------4-----5-----4-----5-----2--2--2----|
--0-----0--0-----0-----0-----0-------------------|

-------------------------------------------------|
-------------------------------------------------|
-------------------------------------------------|
-------7----6--------7-----6-----7---------------|
-------5----4--------5-----4-----5---------------|
--0--0----0----0--0-----0-----0-----3--2--3------|

(Verse)
---------------------------------------------------------------------|
---------------------------------------------------------------------|
---------------------------------------------------------------------|
--2--2---------7-----2--2-------7----2--2--------7-------2--2------7-|
--2--2---------5-----2--2-------5----2--2--------5--7----2--2------5-|
--0--0-----0---------0--0----0-------0--0--0--0-----5----0--0----0---|

--------------------------------------------------------|
--------------------------------------------------------|
--------------------------------------------------------|
--2--2--------7----2--2--------7---------7------4-----7-|
--2--2--------5----2--2--------5---7-----5------2-----5-|
--0--0-----0-------0--0--0--0------5---------0------0---|

---------------------------------------------------------|
---------------------------------------------------------|
---------------------------------------------------------|
--2--2--------7-----------7--------4-----------7---------|
--2--2--------5-----7-----5--------2-----------5---------|
--0--0--0--0--------5----------0-----------0-------3-2-3-|

chorus- PM all open D's
--------------------------------------------|
--------------------------------------------|
--------------------------------------------|
-----7-----6--------7-----6-----7-----4-4-4-|
-2---5-----4--------5-----4-----5-----2-2-2-|
-0------0-----0--0-----0-----0-----0--------|

------------------------------------------------------------------------|
------------------------------------------------------------------------|
------------------------------------------------------------------------|
-------7-----6--------7-----6-----7-----------------7-----6--------7----|
-------5-----4--------5-----4-----5-----------------5-----4--------5----|
--0--0----0-----0--0-----0-----0-----3--2-----0--0-----0-----0--0-----0-|

------------------------------------------------------------------------|
------------------------------------------------------------------------|
------------------------------------------------------------------------|
-----7----6-------7---6------7---4-4-4-------7---6------7---6---7-------|
-----5----4-------5---4------5---2-2-2-------5---4------5---4---5-------|
0--0----0----0--0---0-----0-------------0--0---0---0--0---0---0---3-2-3-|

solo
-----------------------------------------------------|
-----------------------------------------------------|
-7-----7-----7-----7-------7-----7-----7-----7-------|
----7-----7-----7-----7-------7-----7-----7-----7----|
-----------------------------------------------------|
-----------------------------------------------------|

(Verse)
-----------------------------------------------------|
-----------------------------------------------------|
-----------------------------------------------------|
--2--2--------7----2--2--------7----2--2--------7----|
--2--2--------5----2--2--------5----2--2--------5--7-|
--0--0-----0-------0--0-----0-------0--0--0--0-----5-|

-----------------------------------------------------|
-----------------------------------------------------|
-----------------------------------------------------|
--2--2--------7----2--2--------7----2--2--------7----|
--2--2--------5----2--2--------5----2--2--------5--7-|
--0--0-----0-------0--0-----0-------0--0--0--0-----5-|

(Chorus)- PM all open D's
------------------------------------------------|
------------------------------------------------|
------------------------------------------------|
--7------4-------7----------------------7-----6-|
--5------2-------5----------------2-----5-----4-|
-----0-------0---------3--2--3----0--------0----|

-----------------------------------------------------------------------|
-----------------------------------------------------------------------|
-----------------------------------------------------------------------|
----7---6-------7-----6-----7-----4--4--4----7-------4--------7--------|
2---5---4-------5-----4-----5-----2--2--2----5-------2--------5--------|
0-----0----0--0-----0-----0----0-----------------0--------0------3-2-3-|

PM all open D's
-------------------------------------------------|
-------------------------------------------------|
-------------------------------------------------|
--------7-----6--------7-----6-----7-----4--4--4-|
--2-----5-----4--------5-----4-----5-----2--2--2-|
--0--------0-----0--0-----0-----0-----0----------|

-------------------------------------------|
-------------------------------------------|
-------------------------------------------|
-------7-----6--------7-----6-----7--------|
-------5-----4--------5-----4-----5--------|
--0--0-----0-----0--0-----0-----0-----3--2-|

------------------------------------------------------------------------|
------------------------------------------------------------------------|
------------------------------------------------------------------------|
-----7----6-------7---6------7---4-4-4-------7---6------7---6---7-------|
-----5----4-------5---4------5---2-2-2-------5---4------5---4---5-------|
0--0----0----0--0---0-----0-------------0--0---0---0--0---0---0---3-2-3-|

---------------------------------------------|
---------------------------------------------|
---------------------------------------------|
----7-------6------7-----6-----7-----4--4--4-|
----5-------4------5-----4-----5-----2--2--2-|
--0----0--0-----0-----0-----0----------------|

---------------------------------------------|
---------------------------------------------|
---------------------------------------------|
-------7---6--------7-----6-----7------------|
-------5---4--------5-----4-----5------------|
--0-0----0----0--0-----0-----0------3--2--3--|

------------------------------------------------------------------------|
------------------------------------------------------------------------|
------------------------------------------------------------------------|
-----7----6-------7---6------7---4-4-4-------7---6------7---6---7-------|
-----5----4-------5---4------5---2-2-2-------5---4------5---4---5-------|
0--0----0----0--0---0-----0-------------0--0---0---0--0---0---0---3-2-3-|

-------------------------------------------|
-------------------------------------------|
-------------------------------------------|
--7-----6--------7-----6-----7-----4--4--4-|
--5-----4--------5-----4-----5-----2--2--2-|
-----0-----0--0-----0-----0-----0----------|

-------------------------------------------|
-------------------------------------------|
-------------------------------------------|
-------7---6-------7-----6-----7-----------|
-------5---4-------5-----4-----5-----------|
--0--0---0----0--0----0-----0------3--2--3-|

-----------------------------------|
-----------------------------------|
-----------------------------------|
--7---6------7----6----7---4--4--4-|
--5---4------5----4----5---2--2--2-|
----0---0--0----0----0-------------|

----------------------------------------------|
----------------------------------------------|
----------------------------------------------|
------7------6--------7-----6-----7-----------|
------5------4--------5-----4-----5-----------|
-0--0-----0-----0--0-----0-----0------3--2--3-|


3. PUBLIC ENEMY #1
drop d tuning- DGCFAD

x-palm muted
p-pull off

intro-x8
d---------|
g---------|
c--9999x9-|
f--9999x9-|
a--7777x7-|
d---------|

lead after 4th time
d--10-9-10-9-10-9-10p9p7--10-9-10-9-10-9-10p9p7-|
g-----------------------------------------------|
c-----------------------------------------------|
f-----------------------------------------------|
a-----------------------------------------------|
d-----------------------------------------------|

d-----------------------------------------------|
g--10-9-10-9-10-9-10p9p7--10-9-10-9-10-9-10p9p7-|
c-----------------------------------------------|
f-----------------------------------------------|
a-----------------------------------------------|
d-----------------------------------------------|

then the verse starts out with a power chord like
c-9
f-7
a-7
and then its palm muted then open

4. MERRY-GO-ROUND
Fig.A (plays two guitars: one acustic and the other
electric with palm mute):
    F                    Am                    F7
D-|---------------------|---------------------|----------------------|
A-|---1-------1------1--|---1-------1------1--|---1-------1------1---|
F-|------2------2-------|------2------2-------|------2------2--------|
C-|-3------3-------3----|-2------2-------2----|-1------1-------1-----|
G-|---------------------|---------------------|----------------------|
D-|---------------------|---------------------|----------------------|

    G                    Dm                    Fm6 or
A#7
D-|---3-------3---------|---------------------|----------------------|
A-|------3------3----0--|---3-------3------3--|---3-------3------3---|
F-|-0------0-------0----|------2------2-------|------1------1--------|
C-|---------------------|-3------3-------3----|-3------3-------3-----|
G-|---------------------|---------------------|----------------------|
D-|---------------------|---------------------|----------------------|

								    A1:
    C                    Am                    C
             Am
D-|---------------------|---------------------|--------------------|-------||
A-|---1-------1---------|---1-------1---------|---1-------1--------|-------||
F-|------0------0-------|------2------2-------|------0------0------|--2----||
C-|--------2------------|--------2------------|--------2-----------|--2-0--||
G-|-3-------------------|-0--------------0-2--|-3------------------|--0----||
D-|----------------3-4--|---------------------|----------------3-4-|-------||

A2:
 Am
|---------------------||
|---1-------1-----1---||
|------2------2-------||
|--------2------2-----||
|-0-------------------||
|---------------------||

Fig.B:
    F5                 G5                      A5
         Ab5
D-|-----------------------|-----------------------|--------------------|
A-|-----------------------|-----------------------|--------------------|
F-|-----------------------|-----------------------|--------------------|
C-|-3------------------5--|^5------------------7--|----7--7-----6------|
G-|-3------------------5--|^5------------------7--|----7--7-----6------|
D-|-1-1--1-1--1-1--1-1-3--|^3-3--3-3--3-3--3-3-5--|----5--5-----4------|

                   G5                    F#5
          A5
D-|-----------------------|-----------------------|--------------------|
A-|-----------------------|-----------------------|--------------------|
F-|-----------------------|-----------------------|--------------------|
C-|------6--6------5------|-----5--5-----4--------|----4--4------7-----|
G-|------6--6------5------|-----5--5-----4--------|----4--4------7-----|
D-|------4--4------3------|-----3--3-----2--------|----2--2------5-----|

                   Ab5                   G5
          F#5
D-|-----------------------|-----------------------|--------------------|
A-|-----------------------|-----------------------|--------------------|
F-|-----------------------|-----------------------|--------------------|
C-|------7--7------6------|-----6--6-----5--------|----5--5------4-----|
G-|------7--7------6------|-----6--6-----5--------|----5--5------4-----|
D-|------5--5------4------|-----4--4-----3--------|----3--3------2-----|

     F         E
D-|-------|---------||
A-|-------|---------||
F-|-------|---------||
C-|--3----|----2----||
G-|--3----|----2----||
D-|--1----|----0----||

    Solo:
           1+
D-|--------------------|--------------------|--------------------------|
A-|--------------------|--------------------|--------------------------|
F-|-5-7--9-5--7-9--5-7-|-9-5--7-9--5-7--9-5-|-4-5--7-4--5-7--4-7--7----|
C-|--------------------|--------------------|--------------------------|
G-|--------------------|--------------------|--------------------------|
D-|--------------------|--------------------|--------------------------|


             1+....-
D-|---------------------|--------------------|-----------------------------|
A-|---------------------|--------------------|-----------------------------|
F-|-2-4--5-2--4-5--2-4--|--5-2--4-5--2-4-5-2-|--4-5--7-4--5-7--4-7--7------|
C-|---------------------|--------------------|-----------------------------|
G-|---------------------|--------------------|-----------------------------|
D-|---------------------|--------------------|-----------------------------|


D-|-/8-10--12-8--10-12--8-10--|-12-8--10-12--8-10--12-8-|
A-|---------------------------|-------------------------|
F-|---------------------------|-------------------------|
C-|---------------------------|-------------------------|
G-|---------------------------|-------------------------|
D-|---------------------------|-------------------------|

                         1+
D-|-7-8--10-7--8-10-7-10-10---|-5-7--8-5--7-8--5-7-|-8-5--7-8--5-7--8-5--|
A-|---------------------------|--------------------|---------------------|
F-|---------------------------|--------------------|---------------------|
C-|---------------------------|--------------------|---------------------|
G-|---------------------------|--------------------|---------------------|
D-|---------------------------|--------------------|---------------------|

                         1+     1+     1+     1+
D-|-7-8--10-7--8-10-7-10-10---|-----17-----17-----17-/17--|
A-|---------------------------|-20-----20-----20----------|
F-|---------------------------|---------------------------|
C-|---------------------------|---------------------------|
G-|---------------------------|---------------------------|
D-|---------------------------|---------------------------|

                                        1+-
1+                     1+
D-|-----17^20^17----17--20^17--/24-24-|-20-^17----17--------------------------|
A-|-/20----------20-------------------|--------20----20---17^20^17----17------|
F-|-----------------------------------|----------------------------19----19-17|
C-|-----------------------------------|---------------------------------------|
G-|-----------------------------------|---------------------------------------|
D-|-----------------------------------|---------------------------------------|

                               1+
D-|-------------------------------|-------------|------------|-------------|
A-|-------------------------------|-------------|------------|-------------|
F-|-17^19^17----17----------------|-------------|------------|-------------|
C-|----------19----19-17----------|-------------|------------|-------------|
G-|----------------------17-15-17-|-7-----------|-6----------|-5-----------|
D-|-------------------------------|-5--5-7-8-5--|-4--5-7-8-5-|-3--5-7-8-5--|


D-|------------||
A-|------------||
F-|------------||
C-|------------||
G-|-4----------||
D-|-2--5-7-8-5-||

   End:
D-|-1--|---1---|---------3--||
A-|-3--|---3---|-------1----||
F-|-2--|---1---|-----2------||
C-|-0--|---3---|---2--------||
G-|----|---0---|-0----------||
D-|----|-------|------------||

"How To Play It":

Intro:
[Fig.A with A1 compass]

Verse:
[Fig.A with A2 compass]
[Fig.A with A1 compass]

Chorus:
[Fig.B]

Verse:
[Fig.A with A1 compass]

Chorus:
[Fig.B]

[Solo]

Chorus:
[Fig.B]


5. TAKE ME TO THE TOP
PM- palm mute
h- hammeron
p- pull off
/- slide up
~- let ring
nh- natural harmonic
\\/- dive with bar

d tuning- dafcgd

intro- x8
   PM         PM        PM
d--------------------------------|
a--------------------------------|
f-------9--7-------3--5-----5--7-|
c-------7--7-------3--3-----5--5-|
g--0-0--------0-0--------0-------|
d--------------------------------|

   PM      PM      PM    PM   nh---------|
d----------------------------------------|
a---------------------------------5---5--|
f-------9-------9------9------5-5---5----|
c-------7-------7------7-----------------|
g--0-0-----0-0-----0-0----0--------------|
d----------------------------------------|

   PM      PM      PM     PM
d----------------------------------|
a----------------------------------|
f-------9-------9-------9-----9--7-|
c-------7-------7-------7-----7--5-|
g--0-0-----0-0-----0-0-----0-------|
d----------------------------------|

   PM      PM      PM     PM
d----------------------------------|
a----------------------------------|
f-------9-------9-------9-----9--7-|
c-------7-------7-------7-----7--5-|
g--0-0-----0-0-----0-0-----0-------|
d----------------------------------|


   PM      PM      PM     PM
d-----------------------------------|
a-----------------------------------|
f-------9-------9-------9-----9--7~-|
c-------7-------7-------7-----7--5~-|
g--0-0-----0-0-----0-0-----0--------|
d-----------------------------------|

when picking 16th notes move up the fretboard
d------------------------------------------|
a------------------------------------------|
f------------------------------------------|
c------------------------------------------|
g--3---5---0-0-0-0-0-0-0-0-0-0-0-0-0-0-0-0-|
d--1---3-----------------------------------|

when picking 16th notes move down the fretboard
d------------------------------------------|
a------------------------------------------|
f------------------------------------------|
c------------------------------------------|
g--3---5---0-0-0-0-0-0-0-0-0-0-0-0-0-0-0-0-|
d--1---3-----------------------------------|

verse
           PM------------|      PM---------------|
d------------------------------------------------|
a------------------------------------------------|
f------------------------------------------------|
c----------2-2-2-2-2-2-2-2--5~--2-2-2-2-2-2-2-2--|
g--3---5---0-0-0-0-0-0-0-0--3~--0-0-0-0-0-0-0-0--|
d--1---3-----------------------------------------|

      PM------|     PM------|      PM-----------------|
d-----------------------------------------------------|
a-----------------------------------------------------|
f-----------------------------------------------------|
c--7--7-7-7-7-7--9--9-9-9-9-9--10--10-10-10-10-10-12--|
g--5--5-5-5-5-5--7--7-7-7-7-7--8---8--8--8--8--8--10--|
d-----------------------------------------------------|

           PM------------|      PM---------------|
d------------------------------------------------|
a------------------------------------------------|
f------------------------------------------------|
c----------2-2-2-2-2-2-2-2--5~--2-2-2-2-2-2-2-2--|
g--3---5---0-0-0-0-0-0-0-0--3~--0-0-0-0-0-0-0-0--|
d--1---3-----------------------------------------|

      PM------|     PM------|      PM-----------------|
d-----------------------------------------------------|
a-----------------------------------------------------|
f-----------------------------------------------------|
c--7--7-7-7-7-7--9--9-9-9-9-9--10--10-10-10-10-10-10--|
g--5--5-5-5-5-5--7--7-7-7-7-7--8---8--8--8--8--8--8---|
d-----------------------------------------------------|

chorus- x8
   PM         PM        PM
d--------------------------------|
a--------------------------------|
f-------9--7-------3--5-----5--7-|
c-------7--7-------3--3-----5--5-|
g--0-0--------0-0--------0-------|
d--------------------------------|

   PM      PM      PM     PM
d----------------------------------|
a----------------------------------|
f-------9-------9-------9-----9--7-|
c-------7-------7-------7-----7--5-|
g--0-0-----0-0-----0-0-----0-------|
d----------------------------------|


   PM      PM      PM     PM
d-----------------------------------|
a-----------------------------------|
f-------9-------9-------9-----9--7~-|
c-------7-------7-------7-----7--5~-|
g--0-0-----0-0-----0-0-----0--------|
d-----------------------------------|

when picking 16th notes move up the fretboard
d------------------------------------------|
a------------------------------------------|
f------------------------------------------|
c------------------------------------------|
g--3---5---0-0-0-0-0-0-0-0-0-0-0-0-0-0-0-0-|
d--1---3-----------------------------------|

when picking 16th notes move down the fretboard
d------------------------------------------|
a------------------------------------------|
f------------------------------------------|
c------------------------------------------|
g--3---5---0-0-0-0-0-0-0-0-0-0-0-0-0-0-0-0-|
d--1---3-----------------------------------|

verse
           PM------------|      PM---------------|
d------------------------------------------------|
a------------------------------------------------|
f------------------------------------------------|
c----------2-2-2-2-2-2-2-2--5~--2-2-2-2-2-2-2-2--|
g--3---5---0-0-0-0-0-0-0-0--3~--0-0-0-0-0-0-0-0--|
d--1---3-----------------------------------------|

      PM------|     PM------|      PM-----------------|
d-----------------------------------------------------|
a-----------------------------------------------------|
f-----------------------------------------------------|
c--7--7-7-7-7-7--9--9-9-9-9-9--10--10-10-10-10-10-12--|
g--5--5-5-5-5-5--7--7-7-7-7-7--8---8--8--8--8--8--10--|
d-----------------------------------------------------|

           PM------------|      PM---------------|
d------------------------------------------------|
a------------------------------------------------|
f------------------------------------------------|
c----------2-2-2-2-2-2-2-2--5~--2-2-2-2-2-2-2-2--|
g--3---5---0-0-0-0-0-0-0-0--3~--0-0-0-0-0-0-0-0--|
d--1---3-----------------------------------------|

      PM------|     PM------|      PM-----------------|
d-----------------------------------------------------|
a-----------------------------------------------------|
f-----------------------------------------------------|
c--7--7-7-7-7-7--9--9-9-9-9-9--10--10-10-10-10-10-10--|
g--5--5-5-5-5-5--7--7-7-7-7-7--8---8--8--8--8--8--8---|
d-----------------------------------------------------|

chorus- x8
   PM         PM        PM
d--------------------------------|
a--------------------------------|
f-------9--7-------3--5-----5--7-|
c-------7--7-------3--3-----5--5-|
g--0-0--------0-0--------0-------|
d--------------------------------|

   PM      PM      PM     PM
d----------------------------------|
a----------------------------------|
f-------9-------9-------9-----9--7-|
c-------7-------7-------7-----7--5-|
g--0-0-----0-0-----0-0-----0-------|
d----------------------------------|


   PM      PM      PM     PM
d---------------------------------------|
a---------------------------------------|
f-------9-------9-------9-----9--7-\\/--|
c-------7-------7-------7-----7--5-\\/--|
g--0-0-----0-0-----0-0-----0------------|
d---------------------------------------|

6. PIECE OF YOUR ACTION
drop d tuning- DGCFAD

PM -palm mute
NH -natural harmonic
p -pull off
/ -slide up
\ -slide down
~ -let ring
x -muted

all sliding is done with a slide

INTRO- PM
d-------------------------------------------------------------------|
g-------------------------------------------------------------------|
c----------------------------------------2--------------------------|
f-2-2-2-2-2-2-2-2--2-2-2-2-2-2-2-2--2--2-2-2-2-2-2--2-2-2-2-2-2-2-2-|
a-0-0-0-0-0-0-0-0--0-0-0-0-0-0-0-0--0--0-0-0-0-0-0--0-0-0-0-0-0-0-0-|
d-------------------------------------------------------------------|

  PM    PM      PM        PM                   PM     PM     PM       PM     NH
d--------------------------------------------------------------------------------|
g----------------------------------------------------------------------------5---|
c-----9-----7--------7--7-------5------------------9-----7-------7--7-----5--5---|
f-----7-----5--------5--5-------3---0-3p0----------7-----5-------5--5-----3--5---|
a-0-0----0------0-0---------x--------------3---0-0----0-----0-0--------x---------|
d--------------------------------------------------------------------------------|

  PM    PM      PM        PM                PM     PM    PM      PM      NH
d-------------------------------------------------------------------------------|
g-------------------------------------------------------------------------------|
c-----9-----7-------7--7-----5------------------9-----7------7-7-----5----------|
f-----7-----5-------5--5-----3---0-3p0----------7-----5------5-5-----3--0-3p0---|
a-0-0----0-----0-0--------x-------------3---0-0-----0----0-0------x-----------3-|
d-------------------------------------------------------------------------------|

VERSE   PM                                PM
d--------------------------------------------------------|
g--------------------------------------------------------|
c-4/5-------3/4------2/3---------------------------------|
f-4/5----x--3/4------2/3----------------------2--2--2--2-|
a---------------------------------------------0--0--0--0-|
d-----------------------------------------x--------------|

        PM                                PM
d--------------------------------------------------------|
g--------------------------------------------------------|
c-4/5-------3/4------2/3---------------------------------|
f-4/5----x--3/4------2/3----------------------2--2--2--2-|
a---------------------------------------------0--0--0--0-|
d-----------------------------------------x--------------|

     PM~~~~~~~~|     PM~~~~~~~~|     PM~~~~~~~~|        PM   PM    PM
d--------------------------------------------------------------------------|
g--------------------------------------------------------------------------|
c-4/5------------3/4-------------2/3---------------------------------------|
f-4/5------------3/4-------------2/3-------------------2-----2-----2-----2-|
a----0-0-0-0-0-0-----0-0-0-0-0-0-----0-0-0-0-0-0----0--0--0--0--0--0--0--0-|
d--------------------------------------------------------------------------|

       PM~~~~~~~~|      PM~~~~~~~~~~~~|     PM~~~~~~~~~~~~~~~~~~~~~~~~~~~~~~~~|
d-----------------------------------------------------------------------------|
g-----------------------------------------------------------------------------|
c-4/5---------------3/4-----------------2/3-----------------------------------|
f-4/5---------------3/4-----------------2/3-----------------------------------|
a------0-0-0-0-0-0--------0-0-0-0-0-0-----------0-0-0-0-x\----7-7-7-7-7-7-7-7-|
d-----------------------------------------------------------------------------|

  PM~~~~~~~~~~~~~|
d-------------------------------------------|
g-------------------------------------------|
c-------------------------------------------|
f-6-6-6-6-6-6-6-6---9-9-9-9-9-9-9-9---9-12\-|
a-7-7-7-7-7-7-7-7---7-7-7-7-7-7-7-7---7-12\-|
d-------------------------------------------|

  PM~~~~~~~~~~~~|
d-------------------------------------------|
g-------------------------------------------|
c-------------------------------------------|
f-6-6-6-6-6-6-6-6---9-9-9-9-9-9-9-9---9-12\-|
a-7-7-7-7-7-7-7-7---7-7-7-7-7-7-7-7---7-12\-|
d-------------------------------------------|

  PM    PM     PM        PM    PM              PM    PM       PM    NH
d----------------------------------------------------------------------|
g--------------------------------------------------------------------5-|
c-----9-----7------7--7------5---------------9----7------7--7-----5--5-|
f-----7-----5------5--5------3--0-3p0--------7----5------5--5-----3--5-|
a-0-0----0-----0-0--------x-----------3--0-0----0----0-0--------x------|
d----------------------------------------------------------------------|

 PM    PM     PM       PM                 PM    PM     PM       PM       NH
d------------------------------------------------------------------------------|
g------------------------------------------------------------------------------|
c-----9-----7------7--7-----5------------------9-----7------7--7----5----------|
f-----7-----5------5--5-----3---0-3p0----------7-----5------5-5-----3--0-3p0---|
a-0-0----0-----0-0-------x------------3---0-0-----0-----0-0------x-----------3-|
d------------------------------------------------------------------------------|

solo
  PM    PM     PM        PM
d----------------------------------------------------------------------|
g----------------------------------------------------------------------|
c------9----7------7--7-----5-----------------4/5~-----3/4~-------2/3~-|
f------7----5------5--5-----3---0-3p0----------------------------------|
a-0-0-----0----0-0-------x------------3--------------------------------|
d----------------------------------------------------------------------|

d-------------------------------------------------------------|
g-------------------------------------------------------------|
c--3-3/5--7\5--7\5----------------0-----4/5~---5-5/7-7~--7\3~-|
f-------------------7-\-5-/-7--0------------------------------|
a-------------------------------------------------------------|
d-------------------------------------------------------------|

d---------------------------------------------------------|
g---------------------------------------------------------|
c--3-3/5--7\5--7\--------0--------------------------------|
f-------------------7\5~-----0--/7---7\5-----7--7--7\5----|
a--------------------------------------------5----------5-|
d---------------------------------------------------------|

d-----------------------------------------------------------------|
g-----------------------------------------------------------------|
c-----------------------------------------------------------------|
f-7-7-7\-5-/8~--7\5-------/7--7\5----7--7--7\5-----7--7--7\5---5~-|
a--------------------5------------5-------------5--------------5--|
d-----------------------------------------------------------------|

d----------------------------------------------------------------------------|
g----------------------------------------------------------------------------|
c-----------------------------------2p0---2p0----3p0-----2p0----3p0----2p0---|
f-/7--7p5--7--7-7-7p5--7-7-7p5---8------0------0------0-------0-----0------0-|
a--------5-----------5--------5/---------------------------------------------|
d----------------------------------------------------------------------------|

d--------------------------------------------------------|
g--------------------------------------------------------|
c-2p0---3p0----2p0----2p0----/5---5/7---7\10--10/12--12/-|
f-----0-----0------3-------0-/5---5/7---7\10--10/12------|
a--------------------------------------------------------|
d--------------------------------------------------------|

d-17~--17~-17~--17~-17~--17~--17~--17~-17~-17~--17~-x\x\-|
g--------------------------------------------------------|
c--------------------------------------------------------|
f--------------------------------------------------------|
a--------------------------------------------------------|
d--------------------------------------------------------|

 PM~~~~~~~~~~~~~~~~~~~~~~~~~~~~~~~~~~~~~~~~~~~~~~~~~~~~~~~~~~~~~~~~~~~|
d-----------------------------------------------------------------------------|
g-----------------------------------------------------------------------------|
c-14-14-14-14-14-12---14--14-14-14-12----14--14-14-14-14-14-12--14-14---14/17-|
f------------------14-----------------14-----------------------------14-------|
a-----------------------------------------------------------------------------|
d-----------------------------------------------------------------------------|

 PM~~~~~~~~~~~~~~~~~~~~~~~~~~~~~~~~~~~~~~~~~~~~~~~~~~~~~~~~~~~~~~~~~|
d-----------------------------------------------------------------------------|
g-----------------------------------------------------------------------------|
c-14-14-14-14-14-12---14--14-14-14-14-12---14--14-14-14-14-14-12---14--12-12\-|
f------------------14--------------------14---------------------14------------|
a-----------------------------------------------------------------------------|
d-----------------------------------------------------------------------------|

 PM~~~~~~~~~~~~~~~~~~~~~~~~~~~~~~~~~~~~~~~~~~~~~~~~~~~~~~~~~~~~~~~|
d----------------------------------------------------------------------------|
g----------------------------------------------------------------------------|
c-14-14-14-14-14-12---14--14-14-14-12----14--14-14-14-14-14-12---14-14-14/17-|
f------------------14-----------------14-----------------------14------------|
a----------------------------------------------------------------------------|
d----------------------------------------------------------------------------|


 PM~~~~~~~~~~~~~~~~~~~~~~~~~~~~~~~~~~~~~~~~~~~~~~~~~~~~~~~~~~~~~~~~~|
d-----------------------------------------------------------------------------|
g-----------------------------------------------------------------------------|
c-14-14-14-14-14-12---14--14-14-14-14-12---14--14-14-14-14-14-12---14--12-12\-|
f------------------14-------------------14-----------------------14-----------|
a-----------------------------------------------------------------------------|
d-----------------------------------------------------------------------------|

 PM~~~~~~~~~~~~~~~~~~~~~~~~~~~~~~~~~~~~~~~~~~~~~~~~~~~~~~~~~~~~~~~~~~|
d-----------------------------------------------------------------------------|
g-----------------------------------------------------------------------------|
c-14-14-14-14-14-12---14--14-14-14-12----14--14-14-14-14-14-12---14-14--14/17-|
f------------------14-----------------14-----------------------14-------------|
a-----------------------------------------------------------------------------|
d-----------------------------------------------------------------------------|

 PM~~~~~~~~~~~~~~~~~~~~~~~~~~~~~~~~~~~~~~~~~~~~~~~~~~~~~~~~~~~~~~~|
d------------------------------------------------------------------|
g------------------------------------------------------------------|
c-14-14-14-14-14-12----14-14-14-14-14-12----14-14-14-14-14-14-12---|
f------------------14-------------------14----------------------14-|
a------------------------------------------------------------------|
d------------------------------------------------------------------|

d-------------------------------------|
g-------------------------------------|
c--14-14-14-14-14-14-12\2-/-3-/-4-/-5-|
f-----------------------2-/-3-/-4-/-5-|
a-------------------------------------|
d-------------------------------------|

d-----------------------------------------------------------------------|
g-----------------------------------------------------------------------|
c---2p0----3p0-----2p0-----3p0-----2p0------2p0----3p0----2-2p0---------|
f-0-----0-------0-------0-------0-------0--------0------0----------2--2-|
a------------------------------------------------------------------0--0-|
d-----------------------------------------------------------------------|

  PM    PM    PM       PM         NH
d--------------------------------------|
g------------------------------------5-|
c-----9-----7-----7--7------5------5---|
f-----7-----5-----5--5------3----5-----|
a-0-0----0----0-0--------x-------------|
d--------------------------------------|

OUTRO CHORUS
  PM    PM     PM        PM               PM    PM    PM              NH
d------------------------------------------------------------------------|
g----------------------------------------------------------------------5-|
c-----9-----7-------7--7-----5----------------9-----7------7--7-----5--5-|
f-----7-----5-------5--5-----3--0-3p0---------7-----5------5--5-----3--5-|
a-0-0----0-----0-0--------x-----------3---0-0----0-----0-0-------x-------|
d------------------------------------------------------------------------|

  PM    PM    PM        PM                 PM    PM      PM       PM       NH
d-------------------------------------------------------------------------------|
g-------------------------------------------------------------------------------|
c-----9----7------7--7-----5------------------9------7-------7--7----5----------|
f-----7----5------5--5-----3---0-3p0----------7------5-------5-5-----3--0-3p0---|
a-0-0----0----0-0--------x------------3---0-0-----0------0-0------x-----------3-|
d-------------------------------------------------------------------------------|

                                                           PM
d--------------------------------------------------------------|
g--------------------------------------------------------------|
c--------------------------------------------------------------|
f------------------6-6-6-6-6-6-6-6--9-9-9-9-9-9-9-9--9-----x-x-|
a-7-7-7-7-7-7-7-7--7-7-7-7-7-7-7-7--7-7-7-7-7-7-7-7--7---------|
d-0-0-0-0-0-0-0-0--0-0-0-0-0-0-0-0--0-0-0-0-0-0-0-0--0---------|

d-------------------------------------------------------------|
g-------------------------------------------------------------|
c-2p0----3p0----2p0----3p0----2p0----2p0----3p0------2--------|
f-----0------0------0-------0------0------0-------0------2--2-|
a--------------------------------------------------------0--0-|
d-------------------------------------------------------------|


7. STARRY EYES
Intro (riff 1) (Heavy Distrortion)
|--------------------------------------------------------------------|
|-9-------9---9---9---9---9---9---7-----7---7---7---7---7---7----9---|
|-9-------9---9---9---9---9---9---7-----7---7---7---7---7---7----9---|
|-9-------9---9---9---9---9---9---7-----7---7---7---7---7---7----9---|
|-7--7-7--7---7---7---7---7---7---5-5-5-5---5---5---5---5---5----7---|
|--------------------------------------------------------------------|

|---------------------------------------------------------------------|
|-----9---9---9---9---9---9---9---7------7---7---7---7---7---7---9----|
|-----9---9---9---9---9---9---9---7------7---7---7---7---7---7---9----|
|-----9---9---9---9---9---9---9---7------7---7---7---7---7---7---9----|
|-7-7-7---7---7---7---7---7---7---5--5-5-5---5---5---5---5---5---7----|
|---------------------------------------------------------------------|
Verse 1 (Riff 2)
|-----------------------------------------------------------------------|
|-9---9---9---7----7---7---7---9-----9---9---9---7-----7---7---7---9----|
|-9---9---9---7----7---7---7---9-----9---9---9---7-----7---7---7---9----|
|-9---9---9---7----7---7---7---9-----9---9---9---7-----7---7---7---9----|
|-7---7---7---5----5---5---5---7-----7---7---7---5-----5---5---5---7----|
|-----------------------------------------------------------------------|
                                         PM:----------------------------|
|-----------------------------------------------------------------------|
|-9---9---9---7----7---7---7---9----9---9---9---7-----------------------|
|-9---9---9---7----7---7---7---9----9---9---9---7-----------------------|
|-9---9---9---7----7---7---7---9----9---9---9---7---------7-7-7-7-7-7---|
|-7---7---7---5----5---5---5---7----7---7---7---5--X/////-5-5-5-5-5-5---|
|-----------------------------------------------------------------------|
Chorus (riff 3)
|--------------------------------------------------------------------|
|--------------------------------------------------------------------|
|----------------------5------------------------------5--------------|
|-7--5--7--5--7--5--7--3--5--7---5--7---5--7--5---7---3--5-----------|
|-5--3--5--3--5--3--5-----3--5---3--5---3--5--3---7------3-----------|
|--------------------------------------------------------------------|
riff 1
|--------------------------------------------------------------------|
|-9------9---9---9---9---9---9----7-----7---7---7---7---7---7----9---|
|-9------9---9---9---9---9---9----7-----7---7---7---7---7---7----9---|
|-9------9---9---9---9---9---9----7-----7---7---7---7---7---7----9---|
|-7--7---7---7---7---7---7---7----5-5-5-5---5---5---5---5---5----7---|
|--------------------------------------------------------------------|

|--------------------------------------------------------------------|
|-----9-----9---9---9---9---9---9---7-----7---7---7---7---7---7---9--|
|-----9-----9---9---9---9---9---9---7-----7---7---7---7---7---7---9--|
|-----9-----9---9---9---9---9---9---7-----7---7---7---7---7---7---9--|
|-7-7-7-----7---7---7---7---7---7---5-5-5-5---5---5---5---5---5---7--|
|--------------------------------------------------------------------|
Verse 2 (riff 2)
|----------------------------------------------------------------------|
|-9---9---9---7---7---7---7---9-----9---9---9---7-----7---7---7---9----|
|-9---9---9---7---7---7---7---9-----9---9---9---7-----7---7---7---9----|
|-9---9---9---7---7---7---7---9-----9---9---9---7-----7---7---7---9----|
|-7---7---7---5---5---5---5---7-----7---7---7---5-----5---5---5---7----|
|----------------------------------------------------------------------|
                                            PM:------------------------|
|----------------------------------------------------------------------|
|-9---9---9---7---7---7---7---9----9---9---9---7-----------------------|
|-9---9---9---7---7---7---7---9----9---9---9---7-----------------------|
|-9---9---9---7---7---7---7---9----9---9---9---7---------7-7-7-7-7-7---|
|-7---7---7---5---5---5---5---7----7---7---7---5--X/////-5-5-5-5-5-5---|
|----------------------------------------------------------------------|
Chorus (riff 3)
|-----------------------------------------------------------------------|
|-----------------------------------------------------------------------|
|-----------------------5-----------------------------5-----------------|
|-7--5--7---5--7--5--7--3--5--7---5--7--5--7--5---7---3----5------------|
|-5--3--5---3--5--3--5-----3--5---3--5--3--5--3---7--------3------------|
|-----------------------------------------------------------------------|
riff 4
|----------------------------------------------------------------------|
|----------------------------------------------------------------------|
|----------------------------------------------------------------------|
|----------------------------------------------------------------------|
|---------------7------------------7---------------------7-------------|
|-5--8--7--8--8---7--8--5--8--7--8---8--7--8--5--8--7--8---8--7--8-----|

|-----------------------------------------------------------------------|
|-----------------------------------------------------------------------|
|-----------------------------------------------------------------------|
|-----------------------------------------------------------------------|
|------------7---------------------7---------------------7--------------|
|-5--8--7--8---8--7--8--5--8--7--8---8--7--8--5--8--7--8---8---7--8-----|

|-----------------------------------------------------------------------|
|-----------------------------------------------------------------------|
|-----------------------------------------------------------------------|
|-----------------------------------------------------------------------|
|------------7----------------------7---------------------5-------------|
|-5--8--7--8---8--7--8---5--8--7--8---8--7--8--3--6--5--6---6--5---6----|

|----------------------------------------------------------------------|
|----------------------------------------------------------------------|
|----------------------------------------------------------------------|
|----------------------------------------------------------------------|
|------------5-----------------------7---------------------7-----------|
|-3--6--5--6---6--5--6---5--8--7---8---8--7--8--5--8--7--8---8--7---8--|

|----------------------------------------------------------------------|
|----------------------------------------------------------------------|
|----------------------------------------------------------------------|
|----------------------------------------------------------------------|
|------------5----------------------5---------------------7------------|
|-3--6--5--6---6--5--6---3--6--5--6---6--5--6--5--8--7--8---8--7---8---|

|----------------------------------------------------------------------|
|----------------------------------------------------------------------|
|----------------------------------------------------------------------|
|----------------------------------------------------------------------|
|--------------7-------------------------------------------------------|
|5---8---7---8---8---7---8---------------------------------------------|
Chorus (riff 3)
|----------------------------------------------------------------------|
|----------------------------------------------------------------------|
|-----------------------5-----------------------------5----------------|
|-7--5--7---5--7--5--7--3--5--7---5--7--5--7--5---7---3----5-----------|
|-5--3--5---3--5--3--5-----3--5---3--5--3--5--3---7--------3-----------|
|----------------------------------------------------------------------|
I havent tabbed the outro or solo yet and I'll do that when I get it figured out


8. TOO FAST FOR LOVE
drop D tuning- DGCFAD

PM -palm mute
NH -natural harmonics
p -pull off
h -hammer on

INTRO -x2 on all

play only once
 \/
---|--------------------------------------------|
---|--------------------------------------------|
-0-|-0--2p--0p--3p--0p--4h--0p--5h--0--6h7--6h7-|
-0-|--------------------------------------------|
---|--------------------------------------------|
---|--------------------------------------------|

---------------------------------------------|
---------------------------------------------|
---------------------------------------------|
-0---2p--0p--3p--0p--4p--0p--5p--0--6h7--6h7-|
---------------------------------------------|
---------------------------------------------|

---------------------------------------------|
---------------------------------------------|
---------------------------------------------|
---------------------------------------------|
-0---2p--0p--3p--0p--4p--0p--5p--0--6h7--6h7-|
---------------------------------------------|

---------------------------------------------|
---------------------------------------------|
---------------------------------------------|
---------------------------------------------|
---------------------------------------------|
-0---2p--0p--3p--0p--4p--0p--5p--0--6h7--6h7-|

---------------------------------------------|
---------------------------------------------|
---------------------------------------------|
---------------------------------------------|
-0---2p--0p--3p--0p--4p--0p--5p--0--6h7--6h7-|
---------------------------------------------|

VERSE
------------------------------------------------------------------------|
------------------------------------------------------------------------|
-9-9-9-9-9---9-9---9-9-9-9-9---9-9----9-9-9-9-9---9-9---9-9-9-9-9---9-9-|
-9-9-9-9-9---9-9---9-9-9-9-9---9-9----9-9-9-9-9---9-9---9-9-9-9-9---9-9-|
-7-7-7-7-7---7-7---7-7-7-7-7---7-7----7-7-7-7-7---7-7---7-7-7-7-7---7-7-|
------------------------------------------------------------------------|

-----------------------------------------------------------------------|
-----------------------------------------------------------------------|
-9-9-9-9-9---9-9---9-9-9-9-9---9-9-------------------------------------|
-9-9-9-9-9---9-9---9-9-9-9-9---9-9---6-6-6-6-6---6-6---6-6-6-6-6---6-6-|
-7-7-7-7-7---7-7---7-7-7-7-7---7-7---6-6-6-6-6---6-6---6-6-6-6-6---6-6-|
-------------------------------------4-4-4-4-4---4-4---4-4-4-4-4---4-4-|

------------------------------------------------------------------------|
------------------------------------------------------------------------|
-2-2--------2---2-2---2-2---------2---2-2---9-9-9-9-9---9-9---9-9-9-9-9-|
-2-2--------2---2-2---2-2---------2---2-2---9-9-9-9-9---9-9---9-9-9-9-9-|
-0-0--------0---0-0---0-0---------0---0-0---7-7-7-7-7---7-7---7-7-7-7-7-|
------4p0-------------------4p0-----------------------------------------|

-------------------------------------------------------|
-------------------------------------------------------|
-------------------------------------------------------|
-------------------------------------------------------|
-0-2p0-3-0h4-0-5p0-6h7-6h7---0-2p0-3-0h4-0-5p0-6h7-6h7-|
-------------------------------------------------------|

CHORUS - palm muted
-----------------------------------------------------------------------|
-----------------------------------------------------------------------|
-4-4-4-4-4-4-4-4---4-4-4-4-4-4-4-4---2-2-2-2-2-2-2-2---2-2-2-2-2-2-2-2-|
-4-4-4-4-4-4-4-4---4-4-4-4-4-4-4-4---2-2-2-2-2-2-2-2---2-2-2-2-2-2-2-2-|
-2-2-2-2-2-2-2-2---2-2-2-2-2-2-2-2---0-0-0-0-0-0-0-0---0-0-0-0-0-0-0-0-|
-----------------------------------------------------------------------|

------------------------------------------------------------------------|
------------------------------------------------------------------------|
-9-9-9-9-9-9-9-9---9-9-9-9-9-9-9-7--------------------------------------|
-9-9-9-9-9-9-9-9---9-9-9-9-9-9-9-7------------------------------------3-|
-7-7-7-7-7-7-7-7---7-7-7-7-7-7-7-5---5-5-4-4-2-2-0-0----------------0-1-|
------------------------------------------------------3-3-2-2-0-0-------|

-----------------------------------------------------------------------|
-----------------------------------------------------------------------|
-4-4-4-4-4-4-4-4---4-4-4-4-4-4-4-4---2-2-2-2-2-2-2-2---2-2-2-2-2-2-2-2-|
-4-4-4-4-4-
Добавлено: 18.06.2012
Другие материалы по этой песне:
  • Аккорды и текст

Страница создана 18.06.2012
http://primanota.ru/motley-crue/too-fast-for-love-album-chords.htm
Привет, Гость.
Предлагаем пройти революционный курс по гитаре.
Подарок от PrimaNota.Ru, забирай!