PrimaNota.ru - самый крупный в мире бесплатный архив песенных текстов, аккордов, табулатур и нот


Motley Crue - Theatre Of Pain (album) - таба, видео

Регистрация Запомнить меня
Войти через:  Facebook Google Twitter Vk Yandex Mail.ru

Motley Crue - Theatre Of Pain (album) - таба, видео

Печатать
Просмотров: 114
City Boy Blues

D------3-----3--3-----3-----3--3-----3-----3--3--|------------------------------|
A------3-----3--3-----2-----2--2-----1-----1--1--|------------------------------|
F------------------------------------------------|------------------------------|
C------------------------------------------------|------------------------------|
G------------------------------------------------|------------------------------|
D------------------------------------------------|------------------------------|

D---------------------------|---------------------------------------------------|
A---------------------------|---------------------------------------------------|
F---------------------------|---------------------------------------------------|
C---------------------------|---------------------------------------------------|
G------------------5--4-----|---------------------------------------------------|
D---0-----0--2--3-----------|---------------------------------------------------|

D------3-----3--3-----3-----3--3-----3-----3--3--|------------------------------|
A------3-----3--3-----2-----2--2-----1-----1--1--|------------------------------|
F------------------------------------------------|------------------------------|
C------------------------------------------------|------------------------------|
G------------------------------------------------|------------------------------|
D------------------------------------------------|------------------------------|

D---------------------------|--3-----3--3-----3-----3--3-----3-----3--3--|------|
A---------------------------|--3-----3--3-----2-----2--2-----1-----1--1--|------|
F---------------------------|--------------------------------------------|------|
C---------------------------|--------------------------------------------|------|
G------------------5--4-----|--------------------------------------------|------|
D---0-----0--2--3-----------|--------------------------------------------|------|

D---------------------------|---------------------------------------------------|
A---------------------------|---------------------------------------------------|
F---------------------------|---------------------------------------------------|
C---------------------------|---------------------------------------------------|
G------------------5--4-----|---------------------------------------------------|
D---0-----0--2--3-----------|---------------------------------------------------|

D---------------------------------------------------|---------------------------|
A---------------------------------------------------|---------------------------|
F---------------------------------------------------|---------------------------|
C---------------------------------------------------|---------------------------|
G------------7-----5--7-----------5--7--------5--4--|---------------------------|
D------0--------------------0-----------2--3--------|---------------------------|

D---------------------------------------------------------------------|---------|
A---------------------------------------------------------------------|---------|
F---------------------------------------------------------------------|---------|
C---------------------------5-----7--7--5--7-----5--7-----7--7-----5--|---------|
G---------------------------5-----7--7--5--7-----5--7-----5--7-----5--|---------|
D---------------------------------------------------------------------|---------|

D--------------------------------------------------|----------------------------|
A--------------------------------------------------|----------------------------|
F--------------------------------------------------|----------------------------|
C---12-----14--14-----14-----12-----14--14-----14--|----------------------------|
G---12-----14--14-----14-----12-----14--14-----14--|----------------------------|
D--------------------------------------------------|----------------------------|

D---------------------------------------------------|---------------------------|
A---------------------------------------------------|---------------------------|
F---------------------------------------------------|---------------------------|
C---------5-----7--7--5--7-----5--7-----7--7-----5--|---------------------------|
G---------5-----7--7--5--7-----5--7-----5--7-----5--|---------------------------|
D---------------------------------------------------|---------------------------|

D--------------------------------------------------|----------------------------|
A--------------------------------------------------|----------------------------|
F--------------------------------------------------|----------------------------|
C---12-----14--14-----14-----12-----14--14-----14--|----------------------------|
G---12-----14--14-----14-----12-----14--14-----14--|----------------------------|
D--------------------------------------------------|----------------------------|


D---------------------------------------------------|---------------------------|
A---------------------------------------------------|---------------------------|
F---------------------------------------------------|---------------------------|
C---------5-----7--7--5--7-----5--7-----7--7-----5--|---------------------------|
G---------5-----7--7--5--7-----5--7-----5--7-----5--|---------------------------|
D---------------------------------------------------|---------------------------|

D--------------------------------------------------|----------------------------|
A--------------------------------------------------|----------------------------|
F--------------------------------------------------|----------------------------|
C---12-----14--14-----14-----12-----14--14-----14--|----------------------------|
G---12-----14--14-----14-----12-----14--14-----14--|----------------------------|
D--------------------------------------------------|----------------------------|

D---------------------------------------------------|---------------------------|
A---------------------------------------------------|---------------------------|
F---------------------------------------------------|---------------------------|
C---------5-----7--7--5--7-----5--7-----7--7-----5--|---------------------------|
G---------5-----7--7--5--7-----5--7-----5--7-----5--|---------------------------|
D---------------------------------------------------|---------------------------|

D--------------------------------------------------|----------------------------|
A--------------------------------------------------|----------------------------|
F--------------------------------------------------|----------------------------|
C---12-----14--14-----14-----12-----14--14-----14--|----------------------------|
G---12-----14--14-----14-----12-----14--14-----14--|----------------------------|
D--------------------------------------------------|----------------------------|

D---------------------------------------------------------|---------------------|
A---------------------------------------------------------|---------------------|
F------------------------9--8-----------------------------|---------------------|
C---------9-----9--9--9--9-----9--9-----------------------|---------------------|
G---------9-----9--9--9--9-----9--9-----------5-----------|---------------------|
D------------------------------------0--2--3-----0--2--3--|---------------------|

D-------------------------------------------------------------------------------|
A-------------------------------------------------------------------------------|
F-------------------------------------------------------------------------------|
C-------------------------------------------------------------------------------|
G---------------------------------------------------------4--5-----------2------|
D---------------------------------------------------0--------------0------------|

D------------------|--------------------------------------|---------------------|
A------------------|--------------------------------------|---------------------|
F------------------|--------------------------------------|---------------------|
C------------------|-----4--5--------2--4--5-----4--5-----|---------------------|
G---4--5-----4--5--|--0--------0--------------0-----------|---------------------|
D---------0--------|--------------------------------------|---------------------|

D---------------------------------------------------------|---------------------|
A---------------------------------------------------------|---------------------|
F---------------------------------------------------------|---------------------|
C---------------------------------------------------------|---------------------|
G------------------------4--5-----------2--4--5-----4--5--|---------------------|
D------------------0--------------0--------------0--------|---------------------|

D---------------------------------------|---------------------------------------|
A---------------------------------------|---------------------------------------|
F---------------------------------------|---------------------------------------|
C------4--5--------2--4--5-----4--5-----|---------------------------------------|
G---0--------0--------------0-----------|---------------------------------------|
D---------------------------------------|---------------------------------------|

D---------------------------------------------------------|---------------------|
A---------------------------------------------------------|---------------------|
F---------------------------------------------------------|---------------------|
C---------------------------------------------------------|---------------------|
G------------------------4--5-----------2--4--5-----4--5--|---------------------|
D------------------0--------------0--------------0--------|---------------------|

D------------------------------------|------------------------------------------|
A------------------------------------|------------------------------------------|
F---------------------9--8-----------|------------------------------------------|
C------9-----9--9--9--9-----9--9-----|------------------------------------------|
G------9-----9--9--9--9-----9--9-----|------------------------------------------|
D------------------------------------|------------------------------------------|

D---------------------------------------------------------------------|---------|
A---------------------------------------------------------------------|---------|
F---------------------------------------------------------------------|---------|
C---------------------------------------------------------------------|---------|
G------------------------------7-----5--7-----------5--7--------5--4--|---------|
D------------------------0--------------------0-----------2--3--------|---------|

D---------------------------------------------------|---------------------------|
A---------------------------------------------------|---------------------------|
F---------------------------------------------------|---------------------------|
C---------------------------------------------------|---------------------------|
G------------7-----5--7-----------5--7--------5--4--|---------------------------|
D------0--------------------0-----------2--3--------|---------------------------|

D---------------------------------------------------|---------------------------|
A---------------------------------------------------|---------------------------|
F---------------------------------------------------|---------------------------|
C---------5-----7--7--5--7-----5--7-----7--7-----5--|---------------------------|
G---------5-----7--7--5--7-----5--7-----5--7-----5--|---------------------------|
D---------------------------------------------------|---------------------------|

D--------------------------------------------------|----------------------------|
A--------------------------------------------------|----------------------------|
F--------------------------------------------------|----------------------------|
C---12-----14--14-----14-----12-----14--14-----14--|----------------------------|
G---12-----14--14-----14-----12-----14--14-----14--|----------------------------|
D--------------------------------------------------|----------------------------|

D---------------------------------------------------|---------------------------|
A---------------------------------------------------|---------------------------|
F---------------------------------------------------|---------------------------|
C---------5-----7--7--5--7-----5--7-----7--7-----5--|---------------------------|
G---------5-----7--7--5--7-----5--7-----5--7-----5--|---------------------------|
D---------------------------------------------------|---------------------------|

D--------------------------------------------------|----------------------------|
A--------------------------------------------------|----------------------------|
F--------------------------------------------------|----------------------------|
C---12-----14--14-----14-----12-----14--14-----14--|----------------------------|
G---12-----14--14-----14-----12-----14--14-----14--|----------------------------|
D--------------------------------------------------|----------------------------|

D---------------------------------------------------------|---------------------|
A---------------------------------------------------------|---------------------|
F------------------------9--8-----------------------------|---------------------|
C---------9-----9--9--9--9-----9--9-----------------------|---------------------|
G---------9-----9--9--9--9-----9--9-----------5-----------|---------------------|
D------------------------------------0--2--3-----0--2--3--|---------------------|

D-------------------------------------------------------------------------------|
A-------------------------------------------------------------------------------|
F-------------------------------------------------------------------------------|
C-------------------------------------------------------------------------------|
G------------------------------------------------------------4--5---------------|
D------------------------------------------------------0--------------0---------|

D---------------------|--------------------------------------|------------------|
A---------------------|--------------------------------------|------------------|
F---------------------|--------------------------------------|------------------|
C---------------------|-----4--5--------2--4--5-----4--5-----|------------------|
G---2--4--5-----4--5--|--0--------0--------------0-----------|------------------|
D------------0--------|--------------------------------------|------------------|

D---------------------------------------------------------|---------------------|
A---------------------------------------------------------|---------------------|
F---------------------------------------------------------|---------------------|
C---------------------------------------------------------|---------------------|
G------------------------4--5-----------2--4--5-----4--5--|---------------------|
D------------------0--------------0--------------0--------|---------------------|

D---------------------------------------|---------------------------------------|
A---------------------------------------|---------------------------------------|
F---------------------------------------|---------------------------------------|
C------4--5--------2--4--5-----4--5-----|---------------------------------------|
G---0--------0--------------0-----------|---------------------------------------|
D---------------------------------------|---------------------------------------|

D---------------------------------------------------------|---------------------|
A---------------------------------------------------------|---------------------|
F---------------------------------------------------------|---------------------|
C---------------------------------------------------------|---------------------|
G------------------------4--5-----------2--4--5-----4--5--|---------------------|
D------------------0--------------0--------------0--------|---------------------|

D------------------------------------|------------------------------------------|
A------------------------------------|------------------------------------------|
F---------------------9--8-----------|------------------------------------------|
C------9-----9--9--9--9-----9--9-----|------------------------------------------|
G------9-----9--9--9--9-----9--9-----|------------------------------------------|
D------------------------------------|------------------------------------------|

D------------------3-----3--3-----3-----3--3-----3-----3--3--|------------------|
A------------------3-----3--3-----2-----2--2-----1-----1--1--|------------------|
F------------------------------------------------------------|------------------|
C------------------------------------------------------------|------------------|
G------------------------------------------------------------|------------------|
D------------------------------------------------------------|------------------|

D------------------------------|------------------------------------------------|
A------------------------------|------------------------------------------------|
F------------------------------|------------------------------------------------|
C------------------------------|------------------------------------------------|
G------------------5--4--------|------------------------------------------------|
D---0-----0--2--3--------------|------------------------------------------------|

D------3-----3--3-----3-----3--3-----3-----3--3--|------------------------------|
A------3-----3--3-----2-----2--2-----1-----1--1--|------------------------------|
F------------------------------------------------|------------------------------|
C------------------------------------------------|------------------------------|
G------------------------------------------------|------------------------------|
D------------------------------------------------|------------------------------|

D---------------------------|---------------------------------------------------|
A---------------------------|---------------------------------------------------|
F---------------------------|---------------------------------------------------|
C---------------------------|---------------------------------------------------|
G------------------5--4-----|---------------------------------------------------|
D---0-----0--2--3-----------|---------------------------------------------------|

D------3-----3--3-----3-----3--3-----3-----3--3--|------------------------------|
A------3-----3--3-----2-----2--2-----1-----1--1--|------------------------------|
F------------------------------------------------|------------------------------|
C------------------------------------------------|------------------------------|
G------------------------------------------------|------------------------------|
D------------------------------------------------|------------------------------|

D---------------------------|---------------------------------------------------|
A---------------------------|---------------------------------------------------|
F---------------------------|---------------------------------------------------|
C---------------------------|---------------------------------------------------|
G------------------5--4-----|---------------------------------------------------|
D---0-----0--2--3-----------|---------------------------------------------------|

D---------------------------------------------------|---------------------------|
A---------------------------------------------------|---------------------------|
F---------------------------------------------------|---------------------------|
C---------------------------------------------------|---------------------------|
G------------7-----5--7-----------5--7--------5--4--|---------------------------|
D------0--------------------0-----------2--3--------|---------------------------|

D---------------------------------------------------|---------------------------|
A---------------------------------------------------|---------------------------|
F---------------------------------------------------|---------------------------|
C---------------------------------------------------|---------------------------|
G------------7-----5--7-----------5--7--------5--4--|---------------------------|
D------0--------------------0-----------2--3--------|---------------------------|

D---------------------------------------------|---------------------------------|
A---------------------------------------------|---------------------------------|
F---------------------------------------------|---------------------------------|
C---------7-----5--7--------5--7--------5--4--|---------------------------------|
G---0-----------------0-----------2--3--------|---------------------------------|
D---------------------------------------------|---------------------------------|

D---------------------------------------------------|---------------------------|
A---------------------------------------------------|---------------------------|
F---------------------------------------------------|---------------------------|
C---------------------------------------------------|---------------------------|
G------------7-----5--7-----------5--7--------5--4--|---------------------------|
D------0--------------------0-----------2--3--------|---------------------------|

D---------------------------------------------|---------------------------------|
A---------------------------------------------|---------------------------------|
F---------------------------------------------|---------------------------------|
C---------7-----5--7--------5--7--------5--4--|---------------------------------|
G---0-----------------0-----------2--3--------|---------------------------------|
D---------------------------------------------|---------------------------------|

D---------------------------------------------------|---------------------------|
A---------------------------------------------------|---------------------------|
F---------------------------------------------------|---------------------------|
C---------------------------------------------------|---------------------------|
G------------7-----5--7-----------5--7--------5--4--|---------------------------|
D------0--------------------0-----------2--3--------|---------------------------|

D-------------------------------|-----------------------------------------------|
A-------------------------------|-----------------------------------------------|
F-------------------------------|-----------------------------------------------|
C---9-----9--9--9--9--9---\--7--|-----------------------------------------------|
G---9-----9--9--9--9--9--\---7--|-----------------------------------------------|
D-------------------------------|-----------------------------------------------|

D---------------------------------------------|---------------------------------|
A---------------------------------------------|---------------------------------|
F---------------------------------------------|---------------------------------|
C---------------------------------------------|---------------------------------|
G------------4--5-----------2--4--5-----4--5--|---------------------------------|
D------0--------------0--------------0--------|---------------------------------|

D---------------------------------------|---------------------------------------|
A---------------------------------------|---------------------------------------|
F---------------------------------------|---------------------------------------|
C------4--5--------2--4--5-----4--5-----|---------------------------------------|
G---0--------0--------------0-----------|---------------------------------------|
D---------------------------------------|---------------------------------------|

D---------------------------------------------------------|---------------------|
A---------------------------------------------------------|---------------------|
F---------------------------------------------------------|---------------------|
C---------------------------------------------------------|---------------------|
G------------------------4--5-----------2--4--5-----4--5--|---------------------|
D------------------0--------------0--------------0--------|---------------------|

D---------------------------------------|---------------------------------------|
A---------------------------------------|---------------------------------------|
F---------------------------------------|---------------------------------------|
C------4--5--------2--4--5-----4--5-----|---------------------------------------|
G---0--------0--------------0-----------|---------------------------------------|
D---------------------------------------|---------------------------------------|

D---------------------------------------------------------|---------------------|
A---------------------------------------------------------|---------------------|
F---------------------------------------------------------|---------------------|
C---------------------------------------------------------|---------------------|
G------------------------4--5-----------2--4--5-----4--5--|---------------------|
D------------------0--------------0--------------0--------|---------------------|

D---------------------------------------|---------------------------------------|
A---------------------------------------|---------------------------------------|
F---------------------9--8--------------|---------------------------------------|
C------9-----9--9--9--9-----9--7--------|---------------------------------------|
G------9-----9--9--9--9-----9--7--------|---------------------------------------|
D---------------------------------------|---------------------------------------|

D---------------------------------------------------------|---------------------|
A---------------------------------------------------------|---------------------|
F---------------------------------------------------------|---------------------|
C---------------------------------------------------------|---------------------|
G------------------------4--5-----------2--4--5-----4--5--|---------------------|
D------------------0--------------0--------------0--------|---------------------|

D------------------------------------|------------------------------------------|
A------------------------------------|------------------------------------------|
F---------------------9--8-----------|------------------------------------------|
C------9-----9--9--9--9-----9--7-----|------------------------------------------|
G------9-----9--9--9--9-----9--7-----|------------------------------------------|
D------------------------------------|------------------------------------------|

D---------------------------------------------------------|---------------------|
A---------------------------------------------------------|---------------------|
F---------------------------------------------------------|---------------------|
C---------------------------------------------------------|---------------------|
G------------------------4--5-----------2--4--5-----4--5--|---------------------|
D------------------0--------------0--------------0--------|---------------------|

D------------------------------------|------------------------------------------|
A------------------------------------|------------------------------------------|
F---------------------9--8-----------|------------------------------------------|
C------9-----9--9--9--9-----9--7-----|------------------------------------------|
G------9-----9--9--9--9-----9--7-----|------------------------------------------|
D------------------------------------|------------------------------------------|


       repeat and fade out
D---------------------------------------------|---------------------------------|
A---------------------------------------------|---------------------------------|
F---------------------------------------------|---------------------------------|
C---------------------------------------------|---------------------------------|
G------------4--5-----------2--4--5-----4--5--|---------------------------------|
D------0--------------0--------------0--------|---------------------------------|


Smokin In The Boys Room

intro-x2                      last time only
D----------------------------|-----
G----------------------------|-----
C----------------------------|-----
F-8/9----8/9-----8/9----8/9^-|-8/9-
A-6/7----6/7-----6/7----6/7^-|-6/7-
D----------------------------|-----

verse
D---------------------------------------
G---------------------------------------
C---------------------------------------
F-8/9^----------------8/9^--------------
A-6/7^--9/10--9/10----6/7^---9/10--9/10-
D-------7/8---7/8------------7/8----7/8-

chorus- PM all, played pretty fast
D----------------------------------
G----------------------------------
C----------------------------------
F----------------------------------
A-7-7-9-9-7-7-9-9--7-7-9-9-7-7-9-9-
D-5-5-5-5-5-5-5-5--5-5-5-5-5-5-5-5-

Fill 1
  1/2   1/2       
D---------------
G---------------
C-5b------------
F-----7---------
A--------3b-----
D------------5^-

D------------------------------------------
G------------------------------------------
C------------------------------------------
F-9-9-11-11-9-9-11-11--9-9-11-11-9-9-11-11-
A-7-7--7-7--7-7--7-7---7-7--7--7-7-7--7--7-
D------------------------------------------

full,ah
D---------------
G---------------
C-9b^-----------
F-------5--5----
A-------------7-
D---------------

this ones played under the fill, so you dont really hear it
D------------------------------------------
G------------------------------------------
C------------------------------------------
F-9-9-11-11-9-9-11-11--9-9-11-11-9-9-11-11-
A-7-7--7-7--7-7--7-7---7-7--7--7-7-7--7--7-
D------------------------------------------

D-----------------------------------------------------------
G-----------------------------------------------------------
C-----------------------------------------------------------
F-----------------------------------------------------------
A-9-9-11-11-9-9-11-11--7-7-9-9-7-7-9-7--9-9-11-11-9-9-11--7-
D-7-7--7--7-7-7--7--7--5-5-5-5-5-5-5-5--7-7--7--7-7-7--7--5-

verse
D------------------------------
G------------------------------
C------------------------------
F-8/9----8/9---8/7----8/9^-----
A-6/7----6/7---6/7----6/7^-----
D----------------5-------------

D-----------------------------------
G-----------------------------------
C-----------------------------------
F---------------8/9^----------------
A-9/10---9/10---6/7^---9/10----9/10-
D-7/8----7/8-----------7/8-----7/8--

chorus- PM all, played pretty fast
D----------------------------------
G----------------------------------
C----------------------------------
F----------------------------------
A-7-7-9-9-7-7-9-7--7-7-9-7-7-7-9-7-
D-5-5-5-5-5-5-5-5--5-5-5-5-5-5-5-5-

Fill 2
  1/2     ah     
D----------------
G----------------
C----------5-----
F-------------7^-
A-3b----0--------
D----------------

D-------------------------------------
G-------------------------------------
C-------------------------------------
F-9-9-11-9-9-9-11-9-9-9-11-9-9-9-11-9-
A-7-7-7--7-7-7-7--7-7-7-7--7-7-7-7--7-
D-------------------------------------

         |-1/4-|
D----------------------
G----------------------
C----------------------
F--------5b-5b-5b------
A-----7-------------7^-
D----------------------

this ones played under the fill, so you dont really hear it
D----------------------------------
G----------------------------------
C----------------------------------
F----------------------------------
A-7-7-9-7-7-7-9-7--7-7-9-7-7-7-9-7-
D-5-5-5-5-5-5-5-5--5-5-5-5-5-5-5-5-

D-------------------------------------
G-------------------------------------
C-------------------------------------
F-------------------------------------
A-9-9-11-9-9-9-11-9-9-9-11-9-9-9-11-9-
D-7-7-7--7-7-7-7--7-7-7-7--7-7-7-7--7-

D-------------
G-------------
C-------------
F-8/9----8/9^-
A-6/7----6/7^-
D-------------

harmonica solo- chorus PM under it
D----------------------------------
G----------------------------------
C----------------------------------
F----------------------------------
A-7-7-9-9-7-7-9-7--7-7-9-7-7-7-9-7-
D-5-5-5-5-5-5-5-5--5-5-5-5-5-5-5-5-

D-------------------------------------
G-------------------------------------
C-------------------------------------
F-9-9-11-9-9-9-11-9-9-9-11-9-9-9-11-9-
A-7-7-7--7-7-7-7--7-7-7-7--7-7-7-7--7-
D-------------------------------------

D----------------------------------
G----------------------------------
C----------------------------------
F----------------------------------
A-7-7-9-7-7-7-9-7--7-7-9-7-7-7-9-7-
D-5-5-5-5-5-5-5-5--5-5-5-5-5-5-5-5-

D-------------------------------------
G-------------------------------------
C-------------------------------------
F-------------------------------------
A-9-9-11-9-9-9-11-9-9-9-11-9-9-9-11-9-
D-7-7-7--7-7-7-7--7-7-7-7--7-7-7-7--7-

guitar solo- chorus PM under it, 
parts of the harmonica solo are slipped in here and there
                                                          
                                            1/2     1/2           full    
D-----------------------------------------------------------------------------
G-----------------------------------------------------------------------------
C-4/6-----9\7------5/6-------------------------------12b-------12-14b-12------
F------7-------7---------7\5----------------5b------------14\-------------12/-
A------------------------------7-6-5-------------7/---------------------------
D--------------------------------------7-5------------------------------------

harmonica here 

D-------------------------------------------------------------------------------
G---------------------------------------------/16-16----------------------------
C-----14-14\12------12-14-------12-14/10-14/--/16-16-16\14------16\14-----14-16-
F-/14-----------14-----------13-----------------------------16---------16-------
A-------------------------------------------------------------------------------
D-------------------------------------------------------------------------------

harmonica somewhere around here

                  full
D--------------------------5---------------------------------------------------
G-/19/19/16--------8b--8------8-7-5-------5------------------------------------
C-------------16\--------------------8-7----8-7---5-----7-5--------------------
F----------------------------------------------------7-------7-5---------------
A------------------------------------------------------------------7-6-5-5-5-0-
D------------------------------------------------------------------------------

                                  ah      
             1/2             1/4 full 1/4   ah----|
D-------------------------------------------------------------------------------
G-7/8--8------8b----------------------------------------------------------------
C-----------------pick slide--12b-14b-12b-------------14-14\12------12-14-------
F-4/5--5-----------9/-14--------------------14---/14-------------13----------13-
A---------7/--------------------------------------------------------------------
D-------------------------------------------------------------------------------

                        f u l l   f u l l
D------------------------------------------
G---------13/14---------2--2--2---7--7--7--
C-12-14----------14\4---4b-4b-4b--9b-9b-9b-
F------------------------------------------
A------------------------------------------
D------------------------------------------

verse- x1
D---------------------------------------------------------
G---------------------------------------------------------
C---------------------------------------------------------
F-8/9-----8/9-----------------8/9----8/9----------------7-
A-6/7-----6/7----9/10--9/10---6/7----6/7---9/10--9/10---7-
D----------------7/8---7/8-----------------7/8---7/8----5-

chorus- PM, slower than the other chorus
D-------------------------------------
G-------------------------------------
C-------------------------------------
F-------------------------------------
A-9-9-11-11-9-9-11-9--7-7-9-9-7-7-9-7-
D-7-7-7--7--7-7-7--7--5-5-5-5-5-5-5-5-

                           "one more time..."  onto the outro         
D-------------------------------------------------
G-------------------------------------------------
C--------------------------------------9-11-12-13-
F---------------------7-----8/9--8/9---9-11-12-13-
A-9-9-11-11-9-9-11----7-----6/7--6/7---7--9-10-11-
D-7-7-7--7--7-7--7----5---------------------------

-break-

D-------------------------------------------------
G-------------------------------------------------
C--------------------------------------9-11-12-13-
F--------------------7------8/9--8/9---9-11-12-13-
A-7-7-9-9-7-7-9-7----7------6/7--6/7---7--9-10-11-
D-5-5-5-5-5-5-5-5----5----------------------------


outro and free time solo for two guitars, play the usuall chorus PM under this
until the the final slide

gtr 1 
    ah
    full   1/4 1/4  
D--------------------------------------------------------------------------
G----7b--------------------------------------------------------------------
C-----------5b-5b---5--------------------------------------12--------------
F-------------------------7----------14-13-12------------------14--14/-----
A------------------------------------------------14-13-12----------------7-
D------------------------------------------------------------------------5-

PM
D-------------------------------------
G-------------------------------------
C-------------------------------------
F-------------------------------------
A-9-9-11-11-9-9-11-9--7-7-9-9-7-7-9-7-
D-7-7-7--7--7-7-7--7--5-5-5-5-5-5-5-5-

gtr 1
D-----------------------------7\-
G-----------------------7-----7\-
C------------------7----------7\-
F------6------9---------------6\-
A-7---------------------------7\-
D--------------------------------

gtr 2
D---------------------------------------
G---------------------------------------
C---------------------------------------
F------------------------------------8/-
A-4-4-6-6-4-4-4-4-----9-9-9--9-9-9---6/-
D-2-2-2-2-2-2-2-2-----7-7-7--7-7-7------

Louder Than Hell

intro
     PM     PM     PM    PM     PM    PM
d---------------------------------------------
g---------------------------------------------
c-\-2-----5-------7----5-------2-----5------0-
f-\-2-----5-------7----5-------2-----5------0-
a-\-0--0-----0-0-----0---0--0--0--0----0--0---
d---------------------------------------------

      PM   PM     PM     PM    PM    PM       ah
d-----------------------------------------------------
g-----------------------------------------------------
c--2-----5------7----5-------2-----5------0--7b-(7)-5-
f--2-----5------7----5-------2-----5------0-----------
a--0--0-----0-0----0---0--0--0--0----0--0-------------
d-----------------------------------------------------

      PM     PM     PM     PM       PM    PM 
d-------------------------------------------------
g-------------------------------------------------
c--2-----5--------7-----5--------2-----5--------0-
f--2-----5--------7-----5--------2-----5--------0-
a--0--0-----0--0-----0-----0--0--0--0-----0--0----
d-------------------------------------------------

d-------------------------------------------
g-------------------------------------------
c-------------------------------------------
f--7~~~~-------------------------(7)--------
a--------------------------------------0-\/-
d-------------------------------------------


verse
          PM      PM          PM        PM         PM        PM         PM 
d------------------------------------------------------------------------------
g------------------------------------------------------------------------------
c----2-------5--------7-----------5--------2-----------5--------4--------------
f----2-------5--------7-----------5--------2-----------5--------5---------5--6-
a-0----0--0-----0--0-----0-0-0-0-----0--0-----0-0-0-0-----0--0-----0-0-0--5--6-
d-------------------------------------------------------------------------3--4-

          PM      PM          PM        PM         PM        PM         PM 
d-------------------------------------------------------------------------------
g-------------------------------------------------------------------------------
c----2--------5--------7-----------5--------2-----------5--------4--------------
f----2--------5--------7-----------5--------2-----------5--------5---------5--6-
a-0-----0--0-----0--0-----0-0-0-0-----0--0-----0-0-0-0-----0--0-----0-0-0--5--6-
d--------------------------------------------------------------------------3--4-

          PM      PM          PM        PM         PM        PM         PM 
d------------------------------------------------------------------------------
g------------------------------------------------------------------------------
c---2--------5--------7-----------5--------2-----------5--------4--------------
f---2--------5--------7-----------5--------2-----------5--------5---------5--6-
a-0----0--0-----0--0-----0-0-0-0-----0--0-----0-0-0-0-----0--0-----0-0-0--5--6-
d-------------------------------------------------------------------------3--4-

          PM      PM          PM        PM         PM        PM         PM 
d------------------------------------------------------------------------------
g------------------------------------------------------------------------------
c----2-------5--------7-----------5--------2-----------5--------4--------------
f----2-------5--------7-----------5--------2-----------5--------5---------5--6-
a-0----0--0-----0--0-----0-0-0-0-----0--0-----0-0-0-0-----0--0-----0-0-0--5--6-
d-------------------------------------------------------------------------3--4-

pre chorus
d-----------------------------------------------------------
g-----------------------------------------------------------
c----------------5~~---------------------------5~~----------
f--7~~----3~~-----------5---5-5----7~~----3~~---------------
a-----------------------5---5-5-----------------------------
d---------------------3-3-3-3-3-----------------------/17-\-

gtr 2
d---------------------------------------------------------
g----------------5~~----3~~------------------3~~----------
c--5~~----2~~------------------5~~----2~~-----------------
f---------------------------------------------------------
a---------------------------------------------------/17-\-
d---------------------------------------------------------

chours
d-----------------------------------------------------------------------------
g-----------------------------------------------------------------------------
c--2-2-----5--7/-8-\7-p5--7p5--2-2-----5--------5--2-2-----5--7/-8-\7-p5--7p5-
f--2-2-----5--7/-8-\7-p5--7p5--2-2-----5-----5--5--2-2-----5--7/-8-\7-p5--7p5-
a--0-0--0----------------------0-0--0--------5--3--0-0--0---------------------
d-----------------------------------------3--3--------------------------------

d--------------
g--------------
c--2-2--2-2--2-
f--2-2--2-2--2-
a--0-0--0-0--0-
d--------------

intro again
     PM     PM     PM    PM     PM    PM
d--------------------------------------------
g--------------------------------------------
c--2-----5-------7----5-------2-----5------0-
f--2-----5-------7----5-------2-----5------0-
a--0--0-----0-0-----0---0--0--0--0----0--0---
d--------------------------------------------

      PM   PM     PM     PM    PM    PM       ah
d-----------------------------------------------------
g-----------------------------------------------------
c--2-----5------7----5-------2-----5------0--7b-(7)-5-
f--2-----5------7----5-------2-----5------0-----------
a--0--0-----0-0----0---0--0--0--0----0--0-------------
d-----------------------------------------------------

      PM     PM     PM     PM       PM    PM 
d-------------------------------------------------
g-------------------------------------------------
c--2-----5--------7-----5--------2-----5--------0-
f--2-----5--------7-----5--------2-----5--------0-
a--0--0-----0--0-----0-----0--0--0--0-----0--0----
d-------------------------------------------------

d-------------------------------------------
g-------------------------------------------
c-------------------------------------------
f--7~~~~-------------------------(7)--------
a--------------------------------------0-\/-
d-------------------------------------------


verse
          PM      PM          PM        PM         PM        PM         PM 
d------------------------------------------------------------------------------
g------------------------------------------------------------------------------
c----2-------5--------7-----------5--------2-----------5--------4--------------
f----2-------5--------7-----------5--------2-----------5--------5---------5--6-
a-0----0--0-----0--0-----0-0-0-0-----0--0-----0-0-0-0-----0--0-----0-0-0--5--6-
d-------------------------------------------------------------------------3--4-

          PM      PM          PM        PM         PM        PM         PM 
d------------------------------------------------------------------------------
g------------------------------------------------------------------------------
c----2-------5--------7-----------5--------2-----------5--------4--------------
f----2-------5--------7-----------5--------2-----------5--------5---------5--6-
a-0----0--0-----0--0-----0-0-0-0-----0--0-----0-0-0-0-----0--0-----0-0-0--5--6-
d-------------------------------------------------------------------------3--4-

          PM      PM          PM        PM         PM        PM         PM 
d------------------------------------------------------------------------------
g------------------------------------------------------------------------------
c----2-------5--------7-----------5--------2-----------5--------4--------------
f----2-------5--------7-----------5--------2-----------5--------5---------5--6-
a-0----0--0-----0--0-----0-0-0-0-----0--0-----0-0-0-0-----0--0-----0-0-0--5--6-
d-------------------------------------------------------------------------3--4-

          PM      PM          PM        PM         PM        PM         PM 
d------------------------------------------------------------------------------
g------------------------------------------------------------------------------
c----2-------5--------7-----------5--------2-----------5--------4--------------
f----2-------5--------7-----------5--------2-----------5--------5---------5--6-
a-0----0--0-----0--0-----0-0-0-0-----0--0-----0-0-0-0-----0--0-----0-0-0--5--6-
d-------------------------------------------------------------------------3--4-

pre chorus
d-----------------------------------------------------------
g-----------------------------------------------------------
c----------------5~~---------------------------5~~----------
f--7~~----3~~-----------5---5-5----7~~----3~~---------------
a-----------------------5---5-5-----------------------------
d---------------------3-3-3-3-3-----------------------/17-\-

gtr 2
d---------------------------------------------------------
g----------------5~~----3~~------------------3~~----------
c--5~~----2~~------------------5~~----2~~-----------------
f---------------------------------------------------------
a---------------------------------------------------/17-\-
d---------------------------------------------------------

solo
d-------17-19-20--19-20p17----17-----17---------------------------------------
g--20b---------------------20----20b----20p17------------------15-------------
c----------------------------------------------19b~---14-16-17----17-16-17p16-
f-----------------------------------------------------------------------------
a-----------------------------------------------------------------------------
d-----------------------------------------------------------------------------

d-------------------20-19-20-22-20-22-22b-\/-
g--------------------------------------------
c--17-16h17p16-14~---------------------------
f--------------------------------------------
a--------------------------------------------
d--------------------------------------------

outro chorus
d------------------------------------------------------------------------------
g------------------------------------------------------------------------------
c-2-2-----5--7/-8-\7-p5--7p5----2-2-----5--------5--2-2-----5--7/-8-\7-p5--7p5-
f-2-2-----5--7/-8-\7-p5--7p5----2-2-----5-----5--5--2-2-----5--7/-8-\7-p5--7p5-
a-0-0--0------------------------0-0--0--------5--3--0-0--0---------------------
d------------------------------------------3--3--------------------------------

d-------------------------------------------------------------------------
g-------------------------------------------------------------------------
c--2-2-----5--------5----2-2-----5--7/-8-\7-p5--7p5----2-2-----5--------5-
f--2-2-----5-----5--5----2-2-----5--7/-8-\7-p5--7p5----2-2-----5-----5--5-
a--0-0--0--------5--3----0-0--0------------------------0-0--0--------5--3-
d-------------3--3------------------------------------------------3--3----

gtr 2
d---------------------------------
g---------------------------------
c------------------7b-(7)-5-------
f----------------------------7~~--
a---------------------------------
d---------------------------------

d----------------------------------------------------------------
g----------------------------------------------------------------
c--2-2-----5--7/-8-7\-p5--7p5--2-2--2-2--2--7/-8-7\-p5--7p5--2-2-
f--2-2-----5--7/-8-7\-p5--7p5--2-2--2-2--2--7/-8-7\-p5--7p5--2-2-
a--0-0--0----------------------0-0--0-0--0-------------------0-0-
d----------------------------------------------------------------


Keep Your Eye on the Money

intro
d-----------------------------------------------------|
a-----------------------------------------------------|
f--5-----2~----5--7~----2-2-2--5--7---5--2---5--7--5~-|
c--5--5--2~----5--7~----2-2-2--5--7---5--2---5--7--5~-|
g--3--3--0~----3--5~----0-0-0--3--5---3--0---3--5--3~-|
d-----3-----------------------------------------------|

verse
d-----------------------------------------------------------------|
a-----------------------------------------------------------------|
f--2-2-2--5--7---5--2---5--7--5~----2-2-2--5--7---5--2---5--7--5~-|
c--2-2-2--5--7---5--2---5--7--5~----2-2-2--5--7---5--2---5--7--5~-|
g--0-0-0--3--5---3--0---3--5--3~----0-0-0--3--5---3--0---3--5--3~-|
d-----------------------------------------------------------------|

        PM             PM             PM             PM
d-------------------------------------------------------------|
a-------------------------------------------------------------|
f--2-----------5--7-----------5--2-----------5--7-----------5-|
c--2-----------5--7-----------5--2-----------5--7-----------5-|
g--0--0-0-0-0--3--5--0-0-0-0--3--0--0-0-0-0--3--5--0-0-0-0--3-|
d-------------------------------------------------------------|

        PM             PM             PM             PM
d-------------------------------------------------------------|
a-------------------------------------------------------------|
f--2-----------5--7-----------5--2-----------5--7-----------5-|
c--2-----------5--7-----------5--2-----------5--7-----------5-|
g--0--0-0-0-0--3--5--0-0-0-0--3--0--0-0-0-0--3--5--0-0-0-0--3-|
d-------------------------------------------------------------|

pre chorus- dont know yet

chorus
d----------------------------------------------------------------------------------|
a----------------------------------------------------------------------------------|
f---------------7--7-7-7-5-----------------7--5-----------------7--7-7-7-5----7--5-|
c--2--5-2-5-2---7--7-7-7-5----2--5-2-5-2---7--5----2--5-2-5-2---7--7-7-7-5----7--5-|
g--0--3-0-3-0---5--5-5-5-3----0--3-0-3-0---5--3----0--3-0-3-0---5--5-5-5-3----5--3-|
d----------------------------------------------------------------------------------|

intro again
d-----------------------------------------------------------------|
a-----------------------------------------------------------------|
f--2-2-2--5--7---5--2---5--7--5~----2-2-2--5--7---5--2---5--7--5~-|
c--2-2-2--5--7---5--2---5--7--5~----2-2-2--5--7---5--2---5--7--5~-|
g--0-0-0--3--5---3--0---3--5--3~----0-0-0--3--5---3--0---3--5--3~-|
d-----------------------------------------------------------------|

verse
d-----------------------------------------------------------------|
a-----------------------------------------------------------------|
f--2-2-2--5--7---5--2---5--7--5~----2-2-2--5--7---5--2---5--7--5~-|
c--2-2-2--5--7---5--2---5--7--5~----2-2-2--5--7---5--2---5--7--5~-|
g--0-0-0--3--5---3--0---3--5--3~----0-0-0--3--5---3--0---3--5--3~-|
d-----------------------------------------------------------------|

        PM             PM             PM             PM
d-------------------------------------------------------------|
a-------------------------------------------------------------|
f--2-----------5--7-----------5--2-----------5--7-----------5-|
c--2-----------5--7-----------5--2-----------5--7-----------5-|
g--0--0-0-0-0--3--5--0-0-0-0--3--0--0-0-0-0--3--5--0-0-0-0--3-|
d-------------------------------------------------------------|

        PM             PM             PM             PM
d-------------------------------------------------------------|
a-------------------------------------------------------------|
f--2-----------5--7-----------5--2-----------5--7-----------5-|
c--2-----------5--7-----------5--2-----------5--7-----------5-|
g--0--0-0-0-0--3--5--0-0-0-0--3--0--0-0-0-0--3--5--0-0-0-0--3-|
d-------------------------------------------------------------|

pre chorus- dont know yet

chorus
d-------------------------------------------------------------------------------------------|
a-------------------------------------------------------------------------------------------|
f---------------7--7-7-7-5-----------------7--5-----------------7--7-7-7-5----7--5--2~---2~-|
c--2--5-2-5-2---7--7-7-7-5----2--5-2-5-2---7--5----2--5-2-5-2---7--7-7-7-5----7--5--2~---2~-|
g--0--3-0-3-0---5--5-5-5-3----0--3-0-3-0---5--3----0--3-0-3-0---5--5-5-5-3----5--3--0~---0~-|
d-------------------------------------------------------------------------------------------|

x4, PM the 7\'s
d----------------------------------------------------------------------------------|
a----------------------------------------------------------------------------------|
f----------------------------------------------------------------------------------|
c--7-7-5-7-7-7-5-7-7-7-5-7-7-7-5-7-7-7-5~--7-7-5-7-7-7-5-7-7-7-5-7-7-7-5-7-7-7-10~-|
g----------------------------------------------------------------------------------|
d----------------------------------------------------------------------------------|

broken down chorus
x4, PM the 7\'s
d-------------------------------------------------------------------------------|
a-------------------------------------------------------------------------------|
f-------------------------------------------------------------------------------|
c--7-7-5-7-7-7-5-7-7-7-5-7-7-7-5-7-7-7-5--7-7-5-7-7-7-5-7-7-7-5-7-7-7-5-7-7-7-5-|
g-------------------------------------------------------------------------------|
d-------------------------------------------------------------------------------|

solo- not yet

chorus out
d----------------------------------------------------------------------------------|
a----------------------------------------------------------------------------------|
f---------------7--7-7-7-5-----------------7--5-----------------7--7-7-7-5----7--5-|
c--2--5-2-5-2---7--7-7-7-5----2--5-2-5-2---7--5----2--5-2-5-2---7--7-7-7-5----7--5-|
g--0--3-0-3-0---5--5-5-5-3----0--3-0-3-0---5--3----0--3-0-3-0---5--5-5-5-3----5--3-|
d----------------------------------------------------------------------------------|

Home Sweet Home

 C                        Em/B                  C7/Bb
-|--------------------------|---------------------|-------------------------|-
-|-8-----8-------8----------|-8----8-----8--------|-8----8-----8------------|-
-|-9-----9---------9----9---|-9----9-------9---9--|-9----9-------9---9------|-
-|10--10---10-10-----10---10|-9--9---9-9-----9---9|-8--8---8-8-----8---8----|-
-|--------------------------|---------------------|-------------------------|-
-|-8------------------------|-7-------------------|-6-----------------------|-


 F/C                         Rhythm Fig. 1
-|--------------------------|--------------------------|--------------------|-
-|-10-----10-----10---------|-8-----8-------8----------|8---8------8--------|-
-|-10-----10-----10---------|-9-----9---------9----9---|9---9--------9---9--|-
-|-10--10----10--10---------|10--10---10-10-----10---10|9-9----9-9-----9---9|-
-|--------------------------|--------------------------|--------------------|-
-|--8-----------------------|-8------------------------|7-------------------|-
      1st Verse         You    know im a dreamer      But my  hearts of gold


                                        end rhythm fig 1.   C DISTORTION
-|--------------------------|-----------------------------|-----------------|-
-|--8-----8--------8--------|10-----10-------10-----------|-10---------10\--|-
-|--9-----9----------9---9--|10-----10---------10----10---|-10---------10\--|-
-|--8--8-----8--8------8---8|10--10----10-10------10----10|-10---------10\--|-
-|--------------------------|-----------------------------|-----------------|-
-|--6-----------------------|-8---------------------------|--8----------8\--|-
I had a run away hide    So  i wouldnt come home   no,___|     Im on my
                  (repeat rhythm fig 1 with rest of verse)

-|--------------------------|-----------------------------|-----------------|-
-|--------------------------|-----------------------------|-----------------|-
-|--------------------------|-----------------------------|-5-------\-------|-
-|-6--66--------------------|-8--88-----------------------|-5-------\-------|-
-|-6--66----------3---------|-8--88----------5------------|-3-------\-------|-
-|-4--44--4---6-------6---4-|-6--66--6---8-------8----6---|-----------------|-
   Way         Im  on   my    way     home    sweet   home  Tonight Tonight 

-|--------------------------|-----------------------------|-----------------|-
-|--------------------------|-----------------------------|-----------------|-
-|-5-----5-----5-----5-----5|/7-----7-----7-----7-----7---|-5---------------|-
-|--------------------------|-----------------------------|-----------------|-
-|-3-----3-----3-----3-----3|/5-----5-----5-----5-----5---|-3---------------|-
-|--------------------------|-----------------------------|-----------------|-
  Im on my way       Im on my  way      home   sweet   home         You know


 Rhythm Fig. 2
  C                                  B
-|----------------------------------|---------------------------------------|-
-|---------6p5--------------6p5-----|---------5---------------5-------------|-
-|----5--------5-------5---------5--|----4-------4-------4----------4-------|-
-|------5--------5-------5---------5|------5-------5-------5----------------|-
-|-3---------------3----------------|-2---------------2---------------------|-
-|----------------------------------|---------------------------------------|-
   ive seen__          To many    romantic dreams             up   in

  Bb                                 F                     End Rhythm fig 2.
-|------------0----------------0----|-------1-1-------1-1-------1-1---------|-
-|----------------------------------|-----1---------1---------1-------1-----|-
-|------3--------3--------3-------3-|-3----------3---------3----------------|-
-|---5-----5-------5----5---5-------|---------------------------------------|-
-|----------------------------------|---------------------------------------|-
-|-6------------------6-------------|---------------------------------------|-
   light   falling      on   the  silver screen        My hearts like.....
                                                     (repeat ryth fig 2)

  F                   Solo:
                      C
-|-1-----------------|------8-----------------------------------------------|-
-|-1-----------------|-11b-----11--10--8------------------------------------|-
-|-2-----------------|-------------------11--10--8--------------------------|-
-|-3-----------------|-----------------------------10--8--------------------|-
-|-3-----------------|------------------------------------10--8--6--6-------|-
-|-1-----------------|------------------------------------------------------|-
                                                                         
   Bb					       Ab
-|-------------------------------------------|------------------------------|-
-|-------------------------------------------|------------------------------|-
-|---------------------------------------8---|------8----------8-----8--8---|-
-|-----------------------------------------10|--------10---------10---------|-
-|-6\5--5--5--5/6--6--6--6/8--8--8--8h10-----|-8h10-------8h10--------------|-
-|-------------------------------------------|------------------------------|-
                                                                         
  Bb						C		Bb
-|--------------------------------------------------------------------------|-
-|--------------------------------------------------------------------------|-
-|-8\7--7--7--7\5--5--5--5\3--3--5--5b*------br-----b*-----------br--5p3-5*-|-
-|--------------------------------------------------------------------------|-
-|--------------------------------------------------------------------------|-
-|--------------------------------------------------------------------------|-

         Ab					    Bb
-|--------------------------------------------------------------------------|-
-|--------------------------------------------------------------------------|-
-|---------------------------------------------8----------8---------8-------|-
-|-6--6------------------------------------------10---------10--------10----|-
-|------6\5--5--5--5/6--6--6--6/8--8--8--8/10--------8-10------8-10---------|-
-|--------------------------------------------------------------------------|-
                                                                         
  C									Bb
-|10-11-13-10-11-13-10-11-13-10-11-13-10-11-13-10-11-13-10-11-13b-------13b-|-
-|--------------------------------------------------------------------------|-
-|--------------------------------------------------------------------------|-
-|--------------------------------------------------------------------------|-
-|--------------------------------------------------------------------------|-
-|--------------------------------------------------------------------------|-
                                                                         
                         Ab				Bb
-|-10h11-13-10-----------------------------------------|--------------------|-
-|-------------13-10-----------------------------------|--------------------|-
-|-------------------12-1310b----10br----10brp8--------|--------------------|-
-|----------------------------------------------10\----|--------------------|-
-|-----------------------------------------------------|--------------------|-
-|--------------------------------------------------6b-|-r----6--6---6/8----|-
                                                                         
  C							Bb
-|-----------------------------------------------------|--------------------|-
-|-----------------------------------------------------|--------------------|-
-|------------8----------------8--------8-------8----8-|8\7--7--7--7/8--8--8|-
-|-------8----8--10------------8-------10--10----------|--------------------|-
-|-10-10---10--------8/10--10-----10------------6----6-|6\5--5--5--5/6--6--6|-
-|-----------------------------------------------------|-------------
Добавлено: 03.06.2012
Другие материалы по этой песне:
  • Аккорды и текст

Страница создана 03.06.2012
http://primanota.ru/motley-crue/theatre-of-pain-album-chords.htm
Привет, Гость.
Предлагаем пройти революционный курс по гитаре.
Подарок от PrimaNota.Ru, забирай!