PrimaNota.ru - самый крупный в мире бесплатный архив песенных текстов, аккордов, табулатур и нот


Motley Crue - Rattlesnake Shake - текст песни, таба, бас-таба, видео

Регистрация Запомнить меня
Войти через:  Facebook Google Twitter Vk Yandex Mail.ru

Motley Crue - Rattlesnake Shake - текст песни, таба, бас-таба, видео

Печатать
Просмотров: 234
Авторы музыки: Mick Mars, Tommy Lee, Vince Neil, Nikki Sixx
Авторы текста: Nikki Sixx
-------------------------------------------------------------------------------
                             RATTLESNAKE SHAKE - Motley Crue
-------------------------------------------------------------------------------
Tabbed by: ironmanben
Email: bentrooper@gmail.com

Tuning: d A F C G D

intro/outro:
d|--------------------|
A|--------------------|
F|-2--4--5---4-5------|
C|-0--0--0--0-0-0-3h4-|
G|--------------------|
D|--------------------|

intro solo:
d|--------------------------------------------------------------------------
A|--------------------------------------------------------------------------
F|-14-16-14-17-14-16-14-15/17~-----10------14-16-14-17-14-16-14-15/17-22t19-
C|-x--x--x--x--x--x--x--x--x---------12~---x--x--x--x--x--x--x--x--x--------
G|-12-14-12-15-12-14-12-13/15~-------------12-14-12-15-12-14-12-13/15-------
D|--------------------------------------------------------------------------

d|-----------------------------17--19--17---20^(22)-|
A|----------15--17--15-17^(19)---19--19--19---------|
F|-12/14/16---16--16--------------------------------|
C|--------------------------------------------------|
G|--------------------------------------------------|
D|--------------------------------------------------|


verse:
d|-----------------------|------------------|
A|-----------------------|------------------|
F|-2-----2---------------|-2-----2----------|
C|-2-----2---------------|-2-----2----------|
G|-0-----0-----0-3^-0----|-0-----0-----0-3+-|
D|----3~----0-3------3-0-|----3^----0-3-----|


pre/post-chorus:
(pick in upstrokes on the chords so you hit the G string first.)
d|-----------------------|
A|-----------------------|
F|---6/7-6/7-6/7-6/7-6/7-|
C|---5/6-5/6-5/6-5/6-5/6-|
G|------0---0---0---0----|
D|-0---------------------|



chorus:
d|------------------|--------------------|
A|------------------|--------------------|
F|-5---7-5h6-7-5h6--|-2--4--5---4-5------|
C|-5---7-5h6-7-5h6--|-0--0--0--0-0-0-3h4-|
G|---0--0---0-0-----|--------------------|
D|------------------|--------------------|


post-chorus solo:
d|-------------------------------------------------------------------------|
A|-------------------------------------------------------------------------|
F|-14////-16-18-16-19-16-18-16-18^(21)---------16-18-16-19-16-18-16-18^(21)|
C|-x------x--x--x--x--x--x--x--x---------------x--x--x--x--x--x--x--x------|
G|-12////-14-16-14-17-14-16-14-18^(19)---------14-16-14-17-14-16-14-18^(19)|
D|-------------------------------------------------------------------------|


bridge 1:
d|-----------------------------------------------|
A|-----------------------------------------------|
F|-7-~-~~~14--~~~~~~--14-14-14-14-14-14-15-16-17-|
C|-7-~-~~~14--~~~~~~--14-14-14-14-14-14-15-16-17-|
G|-----------------------------------------------|
D|-----------------------------------------------|

bride 2:
d|-------------------------------------------------------------------------|
A|-------------------------------------------------------------------------|
F|----------------------------------5h65h6---------------------------------|
C|-----4h5-5-5-54h54h5----4h5-5-5-5------------4h5-5-5-54h54h5----4h54h5---|
G|-0000---0-0-0-------0000---0-0-0-0-------0000---0-0-0-------0000---------|
D|-------------------------------------------------------------------------|

solo:
d|--------------------------8h9h10 (keep hammering on up the )-1////////23^|
A|--------------------8h9h10-------( d string                )-------------|
F|-14\\\\\-------7h8h9-----------------------------------------------------|
C|----------7h8h9----------------------------------------------------------|
G|-------------------------------------------------------------------------|
D|---------0---------------------------------------------------------------|



Order:
| guitar 1           | guitar 2         |
|--------------------|------------------|
| intro/outro x4     |                  |
| intro x4           | intro solo       |
| verse x6           |                  |
| pre/post-chorus x2 |                  |
| chorus x4          |                  |
| pre/post-chorus x4 | post-chorus solo |
| verse x4           |                  |
| pre/post-chorus x2 |                  |
| chorus x4          |                  |
| bridge 1           |                  |
| bass solo ~~~~~~~~~~~~~~~~~~~~~~~~~~  |
| bridge 2 x2        |                  |
| pre/post-chorus x4 |                  |
| chorus x8          | chorus x8        |
| intro/outro x8     | intro/outro x8   |
|--------------------|------------------|





************************************

| /   slide up
| \   slide down
| h   hammer-on
| p   pull-off
| ~   vibrato
| +   harmonic
| x   Mute note
| b   Bend
| pb  Pre-bend
| br  Bend release
| pbr Pre-bend release
| brb Bend release bend
| t   Trill

************************************
Добавлено: 26.06.2012
Другие материалы по этой песне:

Страница создана 15.04.2012
http://primanota.ru/motley-crue/rattlesnake-shake-chords.htm
Привет, Гость.
Предлагаем пройти революционный курс по гитаре.
Подарок от PrimaNota.Ru, забирай!