PrimaNota.ru - самый крупный в мире бесплатный архив песенных текстов, аккордов, табулатур и нот


Motley Crue - Just Another Psycho - текст песни, таба, бас-таба, видео

Регистрация Запомнить меня
Войти через:  Facebook Google Twitter Vk Yandex Mail.ru

Motley Crue - Just Another Psycho - текст песни, таба, бас-таба, видео

Печатать
Просмотров: 295
Авторы: James Michael, Mick Mars, Marti Frederiksen, DJ Ashba, Nikki Sixx

Artist: Motley Crue
Song: Just Another Psycho
Album: Saints Of Los Angeles
Tuning: Drop C (C, G, C, F, A, D)
Tabbed By: guitartiger


Intro/Main Riff:

D|---------------------------|---------------------------|
A|---------------------------|---------------------------|
F|---------------------------|---------------------------|
C|---------------------------|---------------------------|
G|---------------------------|-9-----8-------------------|
C|--0-0-10h12-0-0-9h10-0-0-0-|---0-0---------------------|
    = =       = =      = = =     = =

D|---------------------------|---------------------------|
A|---------------------------|---------------------------|
F|---------------------------|---------------------------|
C|---------------------------|---------------------------|
G|---------------------------|-9-----8-------------------|
C|--0-0-10h12-0-0-9h10-0-0-0-|---0-0---12----------------|
    = =       = =      = = =     = =

D|---------------------------|---------------------------|
A|---------------------------|---------------------------|
F|---------------------------|------------0---0----------|
C|---------------------------|-----------3-3-2-2---------|
G|---------------------------|-9-----8--1---0------------|
C|--0-0-10h12-0-0-9h10-0-0-0-|---0-0---------------------|
    = =       = =      = = =     = =

Intro Chorus:

D|---------------------------|---------------------------|
A|---------------------------|---------------------------|
F|---------------------------|---------------------------|
C|--9--6--4-4--6-6--9--6--4-4|-6-6-----------------------|
G|--7--4--2-2--4-4--7--4--2-2|-4-4-7-7-7-7-7-7-7-7--2-2-2|
C|---------------------------|-----7-7-7-7-7-7-7-7--2-2-2|

D|---------------------------|---------------------------|
A|---------------------------|---------------------------|
F|------------13--13--13--13-|13--13-13--13--12--12--12--|
C|---------------------------|---------------------------|
G|2--6-6-6-6--11--11--11--11-|11--11-11--11--10--10--10--|
C|2--6-6-6-6-----------------|---------------------------|

D|---------------------------|---------------------------|
A|---------------------------|---------------------------|
F|-12-12--12-12--12-9-9-9-9-6|-9-9-9-9-9-9-9-9-8-6-5-6---|
C|---------------------------|---------------------------|
G|-10-10--10-10--10-7-7-7-7-4|-7-7-7-7-7-7-7-7-6-4-3-4---|
C|---------------------------|---------------------------|

Verse

D|---------------------------|---------------------------|
A|---------------------------|---------------------------|
F|---------------------------|---------------------------|
C|--6-6--6--6-6--6-4-4--4--4-|4--4-----------------------|
G|--4-4--4--4-4--4-2-2--2--2-|2--2-7-7--7--7-7--7-6-6--6-|
C|---------------------------|-----7-7--7--7-7--7-6-6--6-|

D|---------------------------|
A|---------------------------|
F|---------------------------|
C|---------------------------|
G|6-6--6---------------------|
C|6-6--6---------------------|X2

Pre Chorus

D|---------------------------|---------------------------|
A|---------------------------|---------------------------|
F|---------------------------|---------------------------|
C|---------------------------|-------6-6-6-6-6-6-6-6-----|
G|--2-2-2-2-2-2-2-2-6-6-6-6-6|-6-6-6-4-4-4-4-4-4-4-4-7-7-|
C|--2-2-2-2-2-2-2-2-6-6-6-6-6|-6-6-6-----------------7-7-|

D|---------------------------|
A|---------------------------|
F|---------------------------|
C|---------------------------|
G|-7-7-7-7-7-7---------------|
C|-7-7-7-7-7-7---------------|

Chorus

D|---------------------------|---------------------------|
A|---------------------------|---------------------------|
F|---------------------------|---------------------------|
C|--9--6--4-4--6-6--9--6--4-4|-6-6-----------------------|
G|--7--4--2-2--4-4--7--4--2-2|-4-4-7-7-7-7-7-7-7-7--2-2-2|
C|---------------------------|-----7-7-7-7-7-7-7-7--2-2-2|

D|---------------------------|
A|---------------------------|
F|---------------------------|
C|---------------------------|
G|2--6-6-6-6-----------------|
C|2--6-6-6-6-----------------|X2

Main Riff:


D|---------------------------|---------------------------|
A|---------------------------|---------------------------|
F|---------------------------|---------------------------|
C|---------------------------|---------------------------|
G|---------------------------|-9-----8-------------------|
C|--0-0-10h12-0-0-9h10-0-0-0-|---0-0---------------------|
    = =       = =      = = =     = =

D|---------------------------|---------------------------|
A|---------------------------|---------------------------|
F|---------------------------|---------------------------|
C|---------------------------|---------------------------|
G|---------------------------|-9-----8-------------------|
C|--0-0-10h12-0-0-9h10-0-0-0-|---0-0---12----------------|
    = =       = =      = = =     = =

Verse

D|---------------------------|---------------------------|
A|---------------------------|---------------------------|
F|---------------------------|---------------------------|
C|--6-6--6--6-6--6-4-4--4--4-|4--4-----------------------|
G|--4-4--4--4-4--4-2-2--2--2-|2--2-7-7--7--7-7--7-6-6--6-|
C|---------------------------|-----7-7--7--7-7--7-6-6--6-|

D|---------------------------|
A|---------------------------|
F|---------------------------|
C|---------------------------|
G|6-6--6---------------------|
C|6-6--6---------------------|X2

Pre Chorus

D|---------------------------|---------------------------|
A|---------------------------|---------------------------|
F|---------------------------|---------------------------|
C|---------------------------|-------6-6-6-6-6-6-6-6-----|
G|--2-2-2-2-2-2-2-2-6-6-6-6-6|-6-6-6-4-4-4-4-4-4-4-4-7-7-|
C|--2-2-2-2-2-2-2-2-6-6-6-6-6|-6-6-6-----------------7-7-|

D|---------------------------|
A|---------------------------|
F|---------------------------|
C|---------------------------|
G|-7-7-7-7-7-7---------------|
C|-7-7-7-7-7-7---------------|

Chorus

D|---------------------------|---------------------------|
A|---------------------------|---------------------------|
F|---------------------------|---------------------------|
C|--9--6--4-4--6-6--9--6--4-4|-6-6-----------------------|
G|--7--4--2-2--4-4--7--4--2-2|-4-4-7-7-7-7-7-7-7-7--2-2-2|
C|---------------------------|-----7-7-7-7-7-7-7-7--2-2-2|

D|---------------------------|
A|---------------------------|
F|---------------------------|
C|---------------------------|
G|2--6-6-6-6-----------------|
C|2--6-6-6-6-----------------|X2

Bridge

D|---------------------------|
A|---------------------------|
F|---------1--------1--------|
C|---------------------------|
G|--X-X-X-X---X-X-X-X--------|
C|--X-X-X-X---X-X-X-X--------|X2

Solo

D|---------------------------|------------------9-7------|
A|-----------5-----------5---|5-5-10-10-9-9-7-7-----10-9-|
F|--4h5h6-6-6-6-4h5h6-6-6-6--|---------------------------|
C|---------------------------|---------------------------|
G|---------------------------|---------------------------|
C|---------------------------|---------------------------|

D|------9-11/0--9-9--9-7-7---|7/12-12-11-11-9-9----------|
A|-10-9---------9-9--9-7-7---|7/12-12-11-11-9-9----------|
F|---------------------------|---------------------------|
C|---------------------------|---------------------------|
G|---------------------------|---------------------------|
C|---------------------------|---------------------------|

D|9-9--9-7-7---7/12-12-11-11-|-9-9--5-5-4-4-7-7-5-5-9-9--|
A|9-9--9-7-7---7/12-12-11-11-|-9-9-----------------------|
F|---------------------------|---------------------------|
C|---------------------------|---------------------------|
G|---------------------------|---------------------------|
C|---------------------------|---------------------------|

D|7-7-12-12-11-11-17-16-14-16|-14\12---------------------|
A|---------------------------|---------------------------|
F|---------------------------|---------------------------|
C|---------------------------|---------------------------|
G|---------------------------|---------------------------|
C|---------------------------|---------------------------|

Chorus:


(Just Bass One Time)

D|---------------------------|
A|---------------------------|
F|---------------------------|
C|---------------------------|
G|--2-2-2-2-6-6-6-6----------|
C|--2-2-2-2-6-6-6-6----------|

D|---------------------------|---------------------------|
A|---------------------------|---------------------------|
F|---------------------------|---------------------------|
C|--9--6--4-4--6-6--9--6--4-4|-6-6-----------------------|
G|--7--4--2-2--4-4--7--4--2-2|-4-4-7-7-7-7-7-7-7-7--2-2-2|
C|---------------------------|-----7-7-7-7-7-7-7-7--2-2-2|

D|---------------------------|
A|---------------------------|
F|---------------------------|
C|---------------------------|
G|2--6-6-6-6-----------------|
C|2--6-6-6-6-----------------|X3

Outro

D|---------------------------|---------------------------|
A|---------------------------|---------------------------|
F|--13--13--13--13-13--13-13-|12--12--12--12-12--12-12---|
C|---------------------------|---------------------------|
G|--11--11--11--11-11--11-11-|10--10--10--10-10--10-10---|
C|---------------------------|---------------------------|

D|---------------------------|---------------------------|
A|---------------------------|---------------------------|
F|--9-9-9-9-6-9-9-9-9-9-9-9-9|-8-6-5-6-------------------|
C|---------------------------|---------------------------|
G|--7-7-7-7-4-7-7-7-7-7-7-7-7|-6-4-3-4-------------------|
C|---------------------------|---------------------------|X2 (Fade Out)

End

| /  slide up
| \  slide down
| h  hammer-on
| p  pull-off
| b  bend
| ~  vibrato
| +  harmonic
| x  Mute note
| =  Palm Mute
|A.H. Artificial Harmonic


Enjoy, Rate, Comment =P.
Добавлено: 07.05.2012
Другие материалы по этой песне:

Страница создана 07.05.2012
http://primanota.ru/motley-crue/just-another-psycho-chords.htm
Привет, Гость.
Предлагаем пройти революционный курс по гитаре.
Подарок от PrimaNota.Ru, забирай!