PrimaNota.ru - самый крупный в мире бесплатный архив песенных текстов, аккордов, табулатур и нот


Motley Crue - Face Down In The Dirt - текст песни, таба, видео

Регистрация Запомнить меня
Войти через:  Facebook Google Twitter Vk Yandex Mail.ru

Motley Crue - Face Down In The Dirt - текст песни, таба, видео

Печатать
Просмотров: 145
Авторы: James Michael, Marti Frederiksen, DJ Ashba, Nikki Sixx

It's a dirty job, but someone's gotta do it..so heres the tab for the latest and
greatest...listen to
the song for the timing


--Intro--

d-|-----------------------------------------|
a-|------------------10---------------------|
f-|-----------------------------------------|
c-|--7~~--(let-ring)------------------------|
g-|----------------------Whammy-nonsense----|
d-|-----------------------------------------|


--Main Riff--(2x)

d-|-----------------------------------------------|
a-|-------------------------------------------/6--|
f-|--2-------2---------2-------2------2-------/5--|
c-|--2-------2---------2-------2------2-------/3--|
g-|--0-------0---------0-------0------0-----------|
d-|----(3b5)----(3b5-)---(3b5)---(3b5)--(3b5)-----|

d-|-----------------------------------------------|
a-|-----------------------------------------------|
f-|--2-------2--------2-------2-------2-2--0------|
c-|--2-------2--------2-------2-------2-2--0------|
g-|--0-------0--------0-------0-------0-0--2------|
d-|----(3b5)----(3b5)---(3b5)---(3b5)------3------|


--verse--
(main riff 2x)


--pre-chorus--(4x)

d-|------------------------------------|
a-|------------------------------------|
f-|--10-10----------9---9-9-9-9-9-9-9--|
c-|--10-10--10-10---9---9-9-9-9-9-9-9--|
g-|--8--8---10-10---7---7-7-7-7-7-7-7--|
d-|---------8--8-----------------------|


--chorus--(2x)

d-|------------------------------|---------------------------|
a-|------------------------------|---------------------------|
f-|--------5-5---7-7---10-10-10--|--------5-5---7-7----------|
c-|--7-7---5-5---7-7---10-10-10--|--7-7---5-5---7-7---6-6-6--|
g-|--7-7---3-3---5-5---8--8--8---|--7-7---3-3---5-5---6-6-6--|
d-|--5-5-------------------------|--5-5---------------4-4-4--|


d-|------------|--------------------------------------------|
a-|------------|--------------------------------------------|
f-|------------|---/(push-string-into-pickups-with-pick)/---|
c-|------------|--------------------------------------------|
g-|-----(5)----|--------------------------------------------|
d-|------------|--------------------------------------------|


--Main riff--(1x)


--verse--
(main riff 2x)


--pre-chorus--(4x)


--chorus--(4x)



--solo--

d-|------------------------------------------------------|
a-|------------------------------------------------------|
f-|--14-14-14-14---------------10-10-10-10---------------|
c-|--14-14-14-14--14-14-14-14--10-10-10-10--10-10-10-10--|
g-|--12-12-12-12--14-14-14-14--8--8--8--8---10-10-10-10--|
d-|---------------12-12-12-12---------------8--8--8--8---|

d-|------------------------------------------------------|
a-|------------------------------------------------------|
f-|--14-14-14-14----------------------------13-13-13-13--|
c-|--14-14-14-14--14-14-14-14--10-10-10-10--13-13-13-13--|
g-|--12-12-12-12--14-14-14-14--10-10-10-10--11-11-11-11--|
d-|---------------12-12-12-12--8--8--8--8----------------|

d-|-----------------------------------------------------------|
a-|---10-------------10-------------------10------------------|
f-|--(12b14r12b14)--(12b14r12b14r12b14)--(12b14r12b14r12b14)--|
c-|-----------------------------------------------------------|
g-|-----------------------------------------------------------|
d-|-----------------------------------------------------------|

d-|--------------------------------|
a-|---10-----------------9---------|
f-|--(12b14r12b14r12)---(11b13)~~--|
c-|--------------------------------|
g-|--------------------------------|
d-|--------------------------------|

d-|----------------------------------------------------------|
a-|---10-------12-------13-------12-------13-------15--------|
f-|--(12b14)--(14b16)--(15b17)--(14b16)--(15b17)--(17b19)~~--|
c-|----------------------------------------------------------|
g-|----------------------------------------------------------|
d-|----------------------------------------------------------|

d-|----------------------------------------------------------|
a-|---10-------12-------13-------12-------9-------9----------|
f-|--(12b14)--(14b16)--(15b17)--(14b16)--(11b13)-(11b13)~~---|
c-|----------------------------------------------------------|
g-|----------------------------------------------------------|
d-|----------------------------------------------------------|

d-|--------------|---------------|---------------------------|
a-|---10---------|---------------|---------------------------|
f-|--(12b14)~~--0\--(slow-dive)--|---------------------------|
c-|--------------|---------------|---------------------------|
g-|--------------|---------------|--(whammy+pick-scrapes)----|
d-|--------------|---------------|---------------------------|

d-|-------------------------|
a-|-------------------------|
f-|-------------------------|
c-|-------------------------|
g-|--(whammy+pick-scrapes)--|
d-|-------------------------|


--pre-chorus--(4x)

d-|-------------------|
a-|-------------------|
f-|--9-9-9-9-9-9-9-9--|
c-|--9-9-9-9-9-9-9-9--|
g-|--7-7-7-7-7-7-7-7--|
d-|-------------------|


--breakdown--   *ascending harmonics* (gtr 2)

d-|-----|-----|-----|--------------------|------------|------------|
a-|-----|-----|-----|--------------------|------------|------------|
f-|-----|-----|-----|--------9-----------|--10--------|------------|
c-|--7--|--7--|-----|--------9-(16x)-----|--10-(16x)--|--12--------|
g-|--7--|--7--|-----|--------7-----------|--8---------|--12-(16x)--|
d-|--5--|--5--|-----|--(*222333444555*)--|------------|--10--------|


--chorus--(4x)


--Main riff--(1x)


--outro--

d-|---------------------------------------------------|
a-|----------------------------------------------/6---|
f-|--2-------2-------2--------2-------2----------/5---|
c-|--2-------2-------2--------2-------2----------/3---|
g-|--0-------0-------0--------0-------0---------------|
d-|----(3b5)---(3b5)----(3b5)---(3b5)----(3b5)--------|

d-|------------------------------|
a-|------------------------------|
f-|--2-------2-------2-------2---|
c-|--2-------2-------2-------2---|
g-|--0-------0-------0-------0---|
d-|----(3b5)---(3b5)---(3b5)-----|


Well theres one down..comments corrections?

Добавлено: 17.08.2013
Другие материалы по этой песне:
  • Аккорды и текст

Страница создана 17.08.2013
http://primanota.ru/motley-crue/face-down-in-the-dirt-chords.htm
Привет, Гость.
Предлагаем пройти революционный курс по гитаре.
Подарок от PrimaNota.Ru, забирай!