PrimaNota.ru - самый крупный в мире бесплатный архив песенных текстов, аккордов, табулатур и нот


Motionless In White - Black Damask The Fog - бас-таба, видео

Регистрация Запомнить меня
Войти через:  Facebook Google Twitter Vk Yandex Mail.ru

Motionless In White - Black Damask The Fog - бас-таба, видео

Печатать
Просмотров: 165
                      ******MikeSb7's tab*******


Since there isnt any bass tabs for black damask (The Fog)i decided to make one.


Did this by ear, sounds 100% correct 


Timing shouldnt be a problem while playing the notes from the tab 


Please Rate and comment tab thank you (:


I have no rights to this song, all rights go to Motionless In White!!!!
 

Motionless In White - Black Damask (The Fog)

Album: Infamous


Enjoy!!!!!


=============================================================================
=============================================================================



Piano Intro [0:00-0:18}



Verse [0:19-0:38]

D|----------------------------------------|
A|----------------------------------------|(x4)
E|----------------------------------------|
A|-0000000000000000-7777-3333-6666-2222---|



Pre-Chrous [0:39-0:47]

D|-----------------------------------------------------------------|
A|-----------------------------------------------------------------|
E|------------------4444444444444444-------------------------------|
A|-0000000000000000------------------88888888888888888-77777777--7-|



Chorus [0:48-1:09]

D|------------------------------------------------------------|
A|------------------------------------------------------------|
E|------------------------------------------------------------|
A|-0-0---0--0----0-0---0--0--0-----0--0--0---0-0-0-0-0-0-0-0--|



D|---------------------------------------------------------------------|
A|---------------------------------------------------------------------|
E|---------------------------------------------------------------------|
A|-0-0---0--0----0-0---0--0--0-----0--0--0---000000000000000000000000--|



D|-------------------------------------------------------------|
A|-------------------------------------------------------------|
E|-------------------------------------------------------------|
A|-8888888888888888---0-0---0--0----0-0---0--0--0-----0--0--0--|


D|-------------------------------------------------------------|
A|-------------------------------------------------------------|
E|-------------------------------------------------------------|
A|-0-0-0-0-0-0-0-0----0-0---0--0----0-0---0--0--0-----0-0---0--|



Verse [1:10-1:28]

D|----------------------------------------|
A|----------------------------------------|(x4)
E|----------------------------------------|
A|-0000000000000000-7777-3333-6666-2222---|



Pre Chorus [1:29-1:37]

D|-----------------------------------------------------------------|
A|-----------------------------------------------------------------|
E|------------------4444444444444444-------------------------------|
A|-0000000000000000------------------88888888888888888-77777777--7-|



Chorus [1:38-2:00]

D|------------------------------------------------------------|
A|------------------------------------------------------------|
E|------------------------------------------------------------|
A|-0-0---0--0----0-0---0--0--0-----0--0--0---0-0-0-0-0-0-0-0--|



D|---------------------------------------------------------------------|
A|---------------------------------------------------------------------|
E|---------------------------------------------------------------------|
A|-0-0---0--0----0-0---0--0--0-----0--0--0---000000000000000000000000--|



D|-------------------------------------------------------------|
A|-------------------------------------------------------------|
E|-------------------------------------------------------------|
A|-8888888888888888---0-0---0--0----0-0---0--0--0-----0--0--0--|


D|-------------------------------------------------------------|
A|-------------------------------------------------------------|
E|-------------------------------------------------------------|
A|-0-0-0-0-0-0-0-0----0-0---0--0----0-0---0--0--0-----0--0--0--|


Breakdown [2:01-2:24]

D|----------------------------------------------------------------------|
A|----------------------------------------------------------------------|
E|----------------------------------------------------------------------|
A|-0-0---0--0-----------88888888--0-0---0--0----0-0---0--0--0----0-0---0|

D|----------------------------------------------------------------------|
A|----------------------------------------------------------------------|
E|----------------------------------------------------------------------|
A|-0-0---0--0----0-0---0--0-----------8-8-8-8-8-8-8-8---0-0---0--0------|

D|-------------------------------------------------------------|
A|-------------------------------------------------------------|
E|-------------------------------------------------------------|
A|-0-0---0--0----0-0---0-----0-0---0--0-----0~~~~~~~~~~~~~~~~--|


Verse [2:25-2:57]

D|----------------------------------------|
A|----------------------------------------|(x2)
E|----------------------------------------|
A|-0000000000000000-7777-3333-6666-2222---|

D|-----------------------------------------------------------------|
A|-----------------------------------------------------------------|
E|-----------------------------------------------------------------|
A|-0-0---0--0-----------0-0---0--0----0-0---0--0--0------0-0---0---|

D|------------------------------------------------------------------------|
A|------------------------------------------------------------------------|
E|------------------------------------------------------------------------|
A|-000000000000000000000000-8888888888888888--0-0---0--0----0-0---0--0--0-|

D|----------------------------------------------------------------------|
A|----------------------------------------------------------------------|
E|----------------------------------------------------------------------|
A|-0--0--0---0-0-0-0-0-0-0-0---0-0---0--0---0-0---0--0--0------0--0--0--|


Outro [2:58-3:51]

D|----------------------------------------------------------------|
A|----------------------------------------------------------------|(x3)
E|-1--1--1~~~~--1--1--1~~~~~--1--5--5--5~~~--5--3--3--3~~~~--3----|
A|----------------------------------------------------------------|


D|----------------------------------------------------------------|
A|----------------------------------------------------------------|
E|-1--1--1~~~~--1--1--1~~~~---1--5--5--5~~~--5--3--3--3~~~~--3----|
A|----------------------------------------------------------------|


The end.
Добавлено: 06.12.2013
Другие материалы по этой песне:

Страница создана 24.10.2013
http://primanota.ru/motionless-in-white/black-damask-the-fog-chords.htm
Привет, Гость.
Предлагаем пройти революционный курс по гитаре.
Подарок от PrimaNota.Ru, забирай!