PrimaNota.ru - самый крупный в мире бесплатный архив песенных текстов, аккордов, табулатур и нот


Motionless In White - Apocolips - таба, видео

Регистрация Запомнить меня
Войти через:  Facebook Google Twitter Vk Yandex Mail.ru

Motionless In White - Apocolips - таба, видео

Печатать
Просмотров: 143
Band - Motionless In White
Song - Apocolips
Album - The Whorror
Tabbed By - Nick Orvik
Tabber's Profile - Horizonaflame
Email - horizonaflame@yahoo.com

So this song is on their first album, and its very under-appreciated, its an amazing 
song and its pretty easy to play

Drop D

Guitar One

Intro (play twice)

E|-----------------------|-----------------------|----------------------|
B|-----------------------|-----------------------|----------------------|
G|-----------------------|-----------------------|----------------------|
D|-4-4444-4444-444-4-4-4-|-4-4444-4444-444-4-4-4-|-0-0000-0000-000-0-0-0|
A|-4-4444-4444-444-4-4-4-|-4-4444-4444-444-4-4-4-|-0-0000-0000-000-0-0-0|
D|-4-4444-4444-444-4-4-4-|-4-4444-4444-444-4-4-4-|-0-0000-0000-000-0-0-0|

E|-----------------------|
B|-----------------------|
G|-----------------------|
D|-2-2222-2222-222-2-2-2-|
A|-2-2222-2222-222-2-2-2-|
D|-2-2222-2222-222-2-2-2-|

Here's the next part

e|-----------------------------------------------------------------|
B|-----------------------------------------------------------------|
G|-----------------------------------------------------------------|
D|-4-4-4-4-4-4-4-4-4-4-4-4-4-4-4-4-4-4-4-4-4-4-4-4-4-4-4-4-4-4-4-4-|
A|-4-4-4-4-4-4-4-4-4-4-4-4-4-4-4-4-4-4-4-4-4-4-4-4-4-4-4-4-4-4-4-4-|
D|-4-4-4-4-4-4-4-4-4-4-4-4-4-4-4-4-4-4-4-4-4-4-4-4-4-4-4-4-4-4-4-4-|

e|-----------------------------------------------------------------|
B|-----------------------------------------------------------------|
G|-----------------------------------------------------------------|
D|-0-0-0-0-0-0-0-0-0-0-0-0-0-0-0-0-2-2-2-2-2-2-2-2-2-2-2-2-2-2-2-2-|
A|-0-0-0-0-0-0-0-0-0-0-0-0-0-0-0-0-2-2-2-2-2-2-2-2-2-2-2-2-2-2-2-2-|
D|-0-0-0-0-0-0-0-0-0-0-0-0-0-0-0-0-2-2-2-2-2-2-2-2-2-2-2-2-2-2-2-2-|

e|-----------------------------------------------------------------|
B|-----------------------------------------------------------------|
G|-----------------------------------------------------------------|
D|-4-4-4-4-4-4-4-4-4-4-4-4-4-4-4-4-4-4-4-4-4-4-4-4-4-4-4-4-4-4-4-4-|
A|-4-4-4-4-4-4-4-4-4-4-4-4-4-4-4-4-4-4-4-4-4-4-4-4-4-4-4-4-4-4-4-4-|
D|-4-4-4-4-4-4-4-4-4-4-4-4-4-4-4-4-4-4-4-4-4-4-4-4-4-4-4-4-4-4-4-4-|

e|--------------------------------------------------------|
B|--------------------------------------------------------|
G|--------------------------------------------------------|
D|-0-0-0-0-0-0-0-0-0-0-0-0-0-0-0-0-2~---------------------|
A|-0-0-0-0-0-0-0-0-0-0-0-0-0-0-0-0-2~---------------------|
D|-0-0-0-0-0-0-0-0-0-0-0-0-0-0-0-0-2~---------------------|

Here's the next part (i only put one not but they are to be tremolo picked)

e|
B|
G|
D|
A|
D|-4--------2----0--------4--------2----6----
Добавлено: 24.02.2012
Другие материалы по этой песне:
  • Аккорды и текст

Страница создана 24.02.2012
http://primanota.ru/motionless-in-white/apocolips-chords.htm
Привет, Гость.
Предлагаем пройти революционный курс по гитаре.
Подарок от PrimaNota.Ru, забирай!