PrimaNota.ru - самый крупный в мире бесплатный архив песенных текстов, аккордов, табулатур и нот


Motion City Soundtrack - True Romance - таба, видео

Регистрация Запомнить меня
Войти через:  Facebook Google Twitter Vk Yandex Mail.ru

Motion City Soundtrack - True Romance - таба, видео

Печатать
Просмотров: 112
-------------------------------------------------------------------------------
                             True Romance : Motion City Soundtrack
-------------------------------------------------------------------------------
Tabbed by: Torsten Schreiber
Email: tstnschreiber@gmail.com

Tuning: Standard.

Intro/Chorus:

e|----------x---------x--------x------------x--------------------------------|
B|----------x---------x--------x------------x--------------------------------|
G|-------12-x--13-13--x--------x------------x--------------------------------|
D|-------13-x--13-13--x---11-11x---6-6-6-6--x--------------------------------|
A|-------10-x--11-11--x---11-11x---6-6-6-6--x--------------------------------|
E|----------x---------x----9--9x---4-4-4-4--x--------------------------------|

e|----------x---------x--------x---------------------------------------------|
B|----------x---------x--------x---------------------------------------------|
G|-------12-x--13-13--x--------x---17-17-17-17-17----------------------------|
D|-------13-x--13-13--x---11-11x---18-18-18-18-18----------------------------|
A|-------10-x--11-11--x---11-11x---15-15-15-15-15----------------------------|
E|----------x---------x----9--9x---------------------------------------------|x4

Verse:

e|--------------------x---------------x--------------------------------------|
B|--------------------x---------------x--------------------------------------|
G|------12~--13-13-13-x---------------x--------------------------------------|
D|------13~--13-13-13-x-11~-----6-6-6-x--------------------------------------|
A|------10~--11-11-11-x-11~-----6-6-6-x--------------------------------------|
E|--------------------x--9~-----4-4-4-x--------------------------------------|x2

Pre-Chorus:

e|---------------------------------------------------------------------------|
B|---------------------------------------------------------------------------|
G|-----[8]-(x12)---(x4)---6-(x13)--------------------------------------------|
D|---1-[8]-------3--------6-------6-(x3)-------------------------------------|
A|---1-[6]-------3--------4-------6------------------------------------------|
E|---------------1----------------4------------------------------------------|

[] - Since I'm pretty sure MCS plays this tuned song tuned down a half step, 
you can either play the first Eb how I have it or play it higher since I have
it listed as standard tuning. If you tune it down you can play it as a Eb5.    

e|--------------------------------x-x-x-x------------------------------------|
B|--------------------------------x-x-x-x------------------------------------|
G|-----[8]-(x12)---(x4)---6-(x12)-x-x-x-x------------------------------------|
D|---1-[8]-------3--------6-------x-x-x-x------------------------------------|
A|---1-[6]-------3--------4-------x-x-x-x------------------------------------|
E|---------------1----------------x-x-x-x------------------------------------|

Chorus          (x1)
Verse           (x1)
Pre-Chorus      (x1)
Chorus          (x1)

Bridge
e|---------------------------------------------------------------------------|
B|---------------------------------------------------------------------------|
G|----13-(x12)--17-(x4)--10-(x16)--8-(x12)--10-(x4)--6-(x16)-----------------|
D|-----x---------x-------10--------8--------10-------6-----------------------|
A|----11--------15--------8--------6---------8-------4-----------------------|
E|---------------------------------------------------------------------------|(x2)

e|---------------------------------------------------------------------------|
B|---------------------------------------------------------------------------|
G|----10-(x8)--6-(x8)----------5-(x6)--6-(x2)--------------------------------|
D|----10-------6-------6-(x8)--5-------6-------------------------------------|
A|-----8-------4-------6-------3-------4-------------------------------------|
E|---------------------4-----------------------------------------------------|

e|--------------------------------------------x-x-x-x------------------------|
B|--------------------------------------------x-x-x-x------------------------|
G|----10-(x8)--6-(x8)----------5-(x4)--6-(x3)-x-x-x-x------------------------|
D|----10-------6-------6-(x8)--5-------6------x-x-x-x------------------------|
A|-----8-------4-------6-------3-------4------x-x-x-x------------------------|
E|---------------------4----------------------x-x-x-x------------------------|

Chorus          (x1)            

Fin.


Let me know what you guys think. This is my first tab, so I hope you enjoyed it. 
If I get a response I'll probably give it a go on another song.

************************************

| /   slide up
| \   slide down
| h   hammer-on
| p   pull-off
| ~   vibrato
| +   harmonic
| x   Mute note
| b   Bend
| pb  Pre-bend
| br  Bend release
| pbr Pre-bend release
| brb Bend release bend

************************************
Добавлено: 26.10.2013
Другие материалы по этой песне:
  • Аккорды и текст

Страница создана 01.07.2013
http://primanota.ru/motion-city-soundtrack/true-romance-chords.htm
Привет, Гость.
Предлагаем пройти революционный курс по гитаре.
Подарок от PrimaNota.Ru, забирай!