PrimaNota.ru - самый крупный в мире бесплатный архив песенных текстов, аккордов, табулатур и нот


Motion City Soundtrack - Perfect Teeth - таба, бас-таба, видео

Регистрация Запомнить меня
Войти через:  Facebook Google Twitter Vk Yandex Mail.ru

Motion City Soundtrack - Perfect Teeth - таба, бас-таба, видео

Печатать
Просмотров: 117
Tabbed by: Wigman0001
E-mail: wigman_alex@msn.com

Tuning: EbAbDbGbBbeb

Hi, I've looked everywhere for a tab for this song and had no luck at all, so I thought
I'd try my best to tab it out myself. Now of course this is my first tab-all the tabs
wherever you look seem to be the author's first tab! The difference is that this is 
and last tab! I know it probably isn't 100% correct but it's close enough and
if there any big mistakes or additions people want to make, don't hestitate to email me
or just write their own tab!
Enjoy

The very first guitar bit after the drums start
(with distortion)
e----------------------------|
G----------------------------|
D----------------------------|
A----------------------------|
E----5/7--------5/7----------|

The second guitar then comes in with less distortion
(please note the palm muted 'B chord' starts at the second '5/7' from the part 
that doesn't confuse people!

e-----------------------------------------------------------|
B-----------------------------------------------------------|
G-----------------------------------------------------------|
D--------------------------*------*-------------------------|
A--999999992222222244444444444666779999999922222222444444444
E--777777770000000044444444222444557777777700000000222222222
 pm-------------------------------------------------------->

During the two *, the second guitar comes in and plays

e------------|
B------------|
G------------|
D--444666779~
A--444666779~
E--222444557~

This main rifft isn't what the distorted guitar actually plays, but I prefer playing 
riff to the one on the record, I've tabbed both out just so people don't get arsey with me!

(My version!!!)

e--------------------------------------|
B--------------------------------------|
G--------------------------------------|
D--99----9/22----2/66------44466677----|   x2
A--99----9/22----2/66-676--44466677----|
E--77----7/00----0/44----7~22244455----|

(The actual version!!!)
Please note that there are two guitars playing, and I've tabbed out the only one I can 
work out. It's pretty much the same as the above one but with a couple of changes-the 
one encorperates both guitar parts!

Intro riff

e--------------------------------------|
B--------------------------------------|
G--------------------------------------|
D--99----9/22----2/66----6/44466677----|   x2
A--99----9/22----2/66----6/44466677----|
E--77----7/00----0/44----4/22244455----|

The verse part

e-----------------------------------|
B-----------------------------------|
G-----------------------------------|
D---------------------------------7-|
A--99999999222222226666666644466677
E--77777777000000004444444422244455
 pm------------------------------>

e-----------------------------------|
B-----------------------------------|
G-----------------------------------|
D-----------------------------------|
A--9999999922222222444444444444--4--|b
E--777777770000000022222222222255
 pm----------------------------->

e-----------------------------------|
B-----------------------------------|
G-----------------------------------|
D---------------------------------7-|
A--99999999222222226666666644466677
E--77777777000000004444444422244455
 pm------------------------------>

e----------------------------------|
B----------------------------------|
G----------------------------------|
D----------------------------------|7~
A--999999992222222244444444444444447~
E--777777770000000022222222222222225~
 pm-----------------lessen pm

The chorus is the same as whichever 'Intro riff' you choose to use. The second verse is 
same as the first, however, after the first chorus, an undistorted guitar brings in the 
verse by playing this

e------------------|
B------------------|
G------------------|
D--9999999999999999
A--9999999999999999
E--7777777777777777

The second chorus ends a little bit differently to the first one, but I tabbed out the 
of it, not just the end-for ease I've just used the actual version on the record.

e-----------------------------------|
B-----------------------------------|
G-----------------------------------|
D--99----9/22----2/66----6/44466677-|
A--99----9/22----2/66----6/44466677-|
E--77----7/00----0/44----4/22244455-|

e--------------------------------------------|
B--------------------------------------------|
G-----------------------------------------9~-|
D--99----9/22----2/66----6/4446667799999999~-|
A--99----9/22----2/66----6/4446667799999997~-|
E--77----7/00----0/44----4/222444557777777---|

The interlude, or bridge, whatever you crazy kids are calling it these days!

e----------------------------------|
B----------------------------------|
G--6666666677777777----------------|
D--66666666777777772222222222222222  x3
A--44444444555555552222222222222222
E------------------0000000000000000

e----------------------------------|
B----------------------------------|
G--6-6-----7-7---------------------|
D--6-6-----7-7----2~---------------|
A--4-4-----5-5----2~---------------|
E-----------------0~---------------|

The next bit doesn't really have a guitar part-there is one there, but I can't work it 
It doeasn't matter though, you can get away without playing anything.

The next bit is just the verse palm muted, thus!

e----------------------------------|
B----------------------------------|
G----------------------------------|
D----------------------------------|
A--99999999222222226666666644466677
E--77777777000000004444444422244455
 pm------------------------------->

e-----------------------------------|
B-----------------------------------|
G-----------------------------------|
D------------------4-4-4-4-4-4-4----|
A--99999999222222224-4-4-4-4-4-4----|
E--77777777000000002-2-2-2-2-2-2----|
 pm---------------------------------|

And then to finish with it's the chorus/intro riff but with a different ending, thus!

e-----------------------------------|
B-----------------------------------|
G-----------------------------------|
D--99----9/22----2/66----6/44466677-|
A--99----9/22----2/66----6/44466677-|
E--77----7/00----0/44----4/22244455-|

e-----------------------------------------------------|
B-----------------------------------------------------|
G----------------------------------6-6-----7-7--------|
D--99----9/22----2/66----6/444666776-6-----7-7-----2~-|
A--99----9/22----2/66----6/444666774-4-----5-5-----2~-|
E--77----7/00----0/44----4/22244455----------------0~-|

That's the best I cam come up with, please feel free to send corrects or write a 
tab to this-I'd like to know as much as anybody how to play this song correctly.
Добавлено: 12.05.2012
Другие материалы по этой песне:
  • Аккорды и текст

Страница создана 08.03.2012
http://primanota.ru/motion-city-soundtrack/perfect-teeth-chords.htm
Привет, Гость.
Предлагаем пройти революционный курс по гитаре.
Подарок от PrimaNota.Ru, забирай!