PrimaNota.ru - самый крупный в мире бесплатный архив песенных текстов, аккордов, табулатур и нот


Motion City Soundtrack - My Dinosaur Life - таба, видео

Регистрация Запомнить меня
Войти через:  Facebook Google Twitter Vk Yandex Mail.ru

Motion City Soundtrack - My Dinosaur Life - таба, видео

Печатать
Просмотров: 126
I used other people's tabs, but I included who did it.

Song: Worker Bee
Artist: Motion City Soundtrack
Album: My Dinosaur Life
Tabbed by: Colonel_Panic

Tuning: 1/2 Step Down (Eb Bb Gb Db Ab Eb)

Notes: Not much to say. Great tune! I have tabbed the rhythm as accurately as possible. 
I haven't tabbed whether notes should ring out or be muted, as you can easily work this 
out by listening to the song. Finally, there is a third guitar which sometimes harmonises 
with the INTERLUDE octave riff – I haven't bothered to tab this part.


INTRO
(Strum these chords gently and slowly with a pick)

EbI-3---------------------------------------------------------------I
BbI-3-------------------------------0-------------------------------I
GbI-4-------------------------------0-------------------------------I
DbI-5-------------------------------2-------------------------------I
AbI-5-------------------------------2-------------------------------I
EbI-3-------------------------------0-------------------------------I
                       'It's been a good year'    
    
EbI-----------------------------------------------------------------I
BbI---------------------------------5-------------------------------I
GbI-5-------------------------------7-------------------------------I
DbI-5-------------------------------7-------------------------------I
AbI-3-------------------------------5-------------------------------I
EbI-----------------------------------------------------------------I
 'A good new...                       beginning'

EbI-----------------------------------------------------------------I
BbI-3-------------------------------0-------------------------------I
GbI-4-------------------------------0-------------------------------I
DbI-5-------------------------------2-------------------------------I
AbI-5-------------------------------2-------------------------------I
EbI-3-------------------------------0-------------------------------I
              'I'm through with the old school'

EbI-----------------------------------------------------------------I
BbI-----------------------------------------------------------------I
GbI-5-------------------------------7-------------------------------I
DbI-5-------------------------------7-------------------------------I
AbI-3-------------------------------5-------------------------------I
EbI-----------------------------------------------------------------I
'So let's commence the              winning'

EbI-0---------------------------------------------------------------I
BbI-0-------------------------------3-------------------------------I
GbI-0-------------------------------4-------------------------------I
DbI-2-------------------------------5-------------------------------I
AbI-2-------------------------------5-------------------------------I
EbI-0-------------------------------3-------------------------------I
    'I've been a...                 good little...'

EbI-----------------------------------------------------------------I
BbI---------------------------------5-------------------------------I
GbI-5-------------------------------5-------------------------------I
DbI-5-------------------------------7-------------------------------I
AbI-3-------------------------------7-------------------------------I
EbI---------------------------------5-------------------------------I
   '...worker bee...'                                  'I deserve

EbI-----------------------------------------------------------------I
BbI---------------------------------5-------------------------------I
GbI-5-------------------------------7-------------------------------I
DbI-5-------------------------------7-------------------------------I
AbI-3-------------------------------5-------------------------------I
EbI-----------------------------------------------------------------I
  a gold...                         star'



INTERLUDE
(Lead and Rhythm Guitars tabbed here)

EbI-----------------------------------------------------------------I
BbI-----------------------------------------------------------------I
GbI-16--16--16--16--16--16--16--16--14--14--14--14--12--12--12--12--I
DbI-x---x---x---x---x---x---x---x---x---x---x---x---x---x---x---x---I
AbI-14--14--14--14--14--14--14--14--12--12--12--12--10--10--10--10--I
EbI-----------------------------------------------------------------I
  I                                                                 I
EbI-----------------------------------------------------------------I
BbI-----------------------------------------------------------------I
GbI-----------------------------------------------------------------I
DbI-5---5---5---5---5---5---5---5---2---2---2---2---2---2---2---2---I
AbI-5---5---5---5---5---5---5---5---2---2---2---2---2---2---2---2---I
EbI-3---3---3---3---3---3---3---3---0---0---0---0---0---0---0---0---I


EbI-----------------------------------------------------------------I
BbI-----------------------------------------------------------------I
GbI-17--17--17--17--17--17--17--17--16--16--16--16--14--14--14--14--I
DbI-x---x---x---x---x---x---x---x---x---x---x---x---x---x---x---x---I
AbI-15--15--15--15--15--15--15--15--14--14--14--14--12--12--12--12--I
EbI-----------------------------------------------------------------I
  I                                                                 I
EbI-----------------------------------------------------------------I
BbI-----------------------------------------------------------------I
GbI-5---5---5---5---5---5---5---5---7---7---7---7---7---7---7---7---I
DbI-5---5---5---5---5---5---5---5---7---7---7---7---7---7---7---7---I
AbI-3---3---3---3---3---3---3---3---5---5---5---5---5---5---5---5---I
EbI-----------------------------------------------------------------I


EbI-----------------------------------------------------------------I
BbI-----------------------------------------------------------------I
GbI-16--16--16--16--16--16--16--16--14--14--14--14--12--12--12--12--I
DbI-x---x---x---x---x---x---x---x---x---x---x---x---x---x---x---x---I
AbI-14--14--14--14--14--14--14--14--12--12--12--12--10--10--10--10--I
EbI-----------------------------------------------------------------I
  I                                                                 I
EbI-----------------------------------------------------------------I
BbI-----------------------------------------------------------------I
GbI-----------------------------------------------------------------I
DbI-5---5---5---5---5---5---5---5---2---2---2---2---2---2---2---2---I
AbI-5---5---5---5---5---5---5---5---2---2---2---2---2---2---2---2---I
EbI-3---3---3---3---3---3---3---3---0---0---0---0---0---0---0---0---I

EbI-----------------------------------------------------------------I
BbI-----------------------------------------------------------------I
GbI-17--17--17--17--17--17--17--17--16--16--16--16--14--14--14--14--I
DbI-x---x---x---x---x---x---x---x---x---x---x---x---x---x---x---x---I
AbI-15--15--15--15--15--15--15--15--14--14--14--14--12--12--12--12--I
EbI-----------------------------------------------------------------I
  I                                                                 I
EbI-----------------------------------------------------------------I
BbI-----------------------------------------------------------------I
GbI-5---5---5---5---5---5---5---5---7---7---7---7---7---7---7---7---I
DbI-5---5---5---5---5---5---5---5---7---7---7---7---7---7---7---7---I
AbI-3---3---3---3---3---3---3---3---5---5---5---5---5---5---5---5---I
EbI-----------------------------------------------------------------I



VERSE PART 1

EbI-----------------------------------------------------------------I
BbI-----------------------------------------------------------------I
GbI-12--------------------------------------------------------------I
DbI-x---------------------------------------------------------------I
AbI-10--------------------------------------------------------------I
EbI-----------------------------------------------------------------I
  I                                                                 I
EbI-----------------------------------------------------------------I
BbI-----------------------------------------------------------------I
GbI-----------------------------------------------------------------I
DbI-5---5---5---5---5---5---5---5---2---2---2---2---2---2---2---2---I
AbI-5---5---5---5---5---5---5---5---2---2---2---2---2---2---2---2---I
EbI-3---3---3---3---3---3---3---3---0---0---0---0---0---0---0---0---I
                    'Don all the glands'

EbI-----------------------------------------------------------------I
BbI-----------------------------------------------------------------I
GbI---------------------------------------------------------12//14\\I
DbI---------------------------------------------------------x---x---I
AbI---------------------------------------------------------10//12\\I
EbI-----------------------------------------------------------------I
  I                                                                 I
EbI-----------------------------------------------------------------I
BbI-----------------------------------------------------------------I
GbI-----------------------------------------------------------------I
DbI-5---5---5---5---5---5---5---5---7---7---7---7---7---7---7---7---I
AbI-3---3---3---3---3---3---3---3---5---5---5---5---5---5---5---5---I
EbI-----------------------------------------------------------------I
    'Black holes                and liars


EbI-----------------------------------------------------------------I
BbI-----------------------------------------------------------------I
GbI\12--------------------------------------------------------------I
DbI-x---------------------------------------------------------------I
AbI\10--------------------------------------------------------------I
EbI-----------------------------------------------------------------I
  I                                                                 I
EbI-----------------------------------------------------------------I
BbI-----------------------------------------------------------------I
GbI-----------------------------------------------------------------I
DbI-5---5---5---5---5---5---5---5---2---2---2---2---2---2---2---2---I
AbI-5---5---5---5---5---5---5---5---2---2---2---2---2---2---2---2---I
EbI-3---3---3---3---3---3---3---3---0---0---0---0---0---0---0---0---I
                'The constant companions...'

EbI-----------------------------------------------------------------I
BbI-----------------------------------------------------------------I
GbI-----------------------------------------------------------------I
DbI-----------------------------------------------------------------I
AbI-----------------------------------------------------------------I
EbI-----------------------------------------------------------------I
  I                                                                 I
EbI-----------------------------------------------------------------I
BbI-----------------------------------------------------------------I
GbI-----------------------------------------------------------------I
DbI-5---5---5---5---5---5---5---5---7---7---7---7---7---7---7---7---I
AbI-3---3---3---3---3---3---3---3---5---5---5---5---5---5---5---5---I
EbI-----------------------------------------------------------------I
'of noxious suppliers'


VERSE PART 2

EbI-----------------------------------------------------------------I
BbI-----------------------------------------------------------------I
GbI-----------------------------------------------------------------I
DbI-2-------2-------2-------2-------5-------5-------5-------5-------I
AbI-2-------2-------2-------2-------5-------5-------5-------5-------I
EbI-0-------0-------0-------0-------3-------3-------3-------3-------I
    'Carnival kings'

EbI---------------------------------0-------------------------------I
BbI---------------------------------1-------------------------------I
GbI-5-------5-------5-----5----5----2-------------------------------I
DbI-5-------5-------5-----5----5----2-------------------------------I
AbI-3-------3-------3-----3----3----0-------------------------------I
EbI-----------------------------------------------------------------I
   'Holiday                         sins.'          'Comas in

EbI-----------------------------------------------------------------I
BbI-----------------------------------------------------------------I
GbI-5---5---5---5---5---5---5---5---7---7---7---7---7---7---7---7---I
DbI-5---5---5---5---5---5---5---5---7---7---7---7---7---7---7---7---I
AbI-3---3---3---3---3---3---3---3---5---5---5---5---5---5---5---5---I
EbI-----------------------------------------------------------------I
    cashmere...'


Play VERSE PART 1 again
Play VERSE PART 2 again


BRIDGE

EbI-----------------------------------------------------------------I
BbI-----------------------------------------------------------------I
GbI-----------------------------------------------------------------I
DbI-2---2---2---2---2---2---2---2---5---5---5---5---5---5---5---5---I
AbI-2---2---2---2---2---2---2---2---5---5---5---5---5---5---5---5---I
EbI-0---0---0---0---0---0---0---0---3---3---3---3---3---3---3---3---I
   'Now that my                     words don't quite
EbI-----------------------------------------------------------------I
BbI-----------------------------------------------------------------I
GbI-5---5---5---5---5---5---5---5---7---7---7---7---7---7---7---7---I
DbI-5---5---5---5---5---5---5---5---7---7---7---7---7---7---7---7---I
AbI-3---3---3---3---3---3---3---3---5---5---5---5---5---5---5---5---I
EbI-----------------------------------------------------------------I
    do what they                    should'

EbI-----------------------------------------------------------------I
BbI-----------------------------------------------------------------I
GbI-----------------------------------------------------------------I
DbI-2---2---2---2---2---2---2---2---5---5---5---5---5---5---5---5---I
AbI-2---2---2---2---2---2---2---2---5---5---5---5---5---5---5---5---I
EbI-0---0---0---0---0---0---0---0---3---3---3---3---3---3---3---3---I
   'Now that old                    wounds are

EbI-----------------------------------------------------------------I
BbI-----------------------------------------------------------------I
GbI-5---5---5---5---5---5---5---5---7---7---7---7---7---7---7---7---I
DbI-5---5---5---5---5---5---5---5---7---7---7---7---7---7---7---7---I
AbI-3---3---3---3---3---3---3---3---5---5---5---5---5---5---5---5---I
EbI-----------------------------------------------------------------I
  resurfacing                       too'

EbI-----------------------------------------------------------------I
BbI-----------------------------------------------------------------I
GbI-----------------------------------------------------------------I
DbI-7---7---7---7---7---7---7---7---7---7---7---7---7---7---7---7---I
AbI-7---7---7---7---7---7---7---7---7---7---7---7---7---7---7---7---I
EbI-5---5---5---5---5---5---5---5---5---5---5---5---5---5---5---5---I
'It makes me feel golden'

EbI-----------------------------------------------------------------I
BbI-----------------------------------------------------------------I
GbI-5---5---5---5---5---5---5---5---5---5---5---5---5---5---5---5---I
DbI-5---5---5---5---5---5---5---5---5---5---5---5---5---5---5---5---I
AbI-3---3---3---3---3---3---3---3---3---3---3---3---3---3---3---3---I
EbI-----------------------------------------------------------------I
'It makes me feel good'


Play INTERLUDE
(The lyrics from the first half of the INTRO are sung over this part)


GUITAR SOLO

EbI-----------------------------------------------------------------I
BbI-----12----------12----------12------10----------10----------10--I
GbI---------12----------12------------------12----------12----------I
DbI-12----------12----------12------12----------12----------12------I
AbI-----------------------------------------------------------------I
EbI-----------------------------------------------------------------I
  I                                                                 I
EbI-----------------------------------------------------------------I
BbI-----------------------------------------------------------------I
GbI-9-------9-------9-------9---------------------------------------I
DbI-9-------9-------9-------9-------5-------5-------5-------5-------I
AbI-7-------7-------7-------7-------5-------5-------5-------5-------I
EbI---------------------------------3-------3-------3-------3-------I


EbI-----------------------------------------------------------------I
BbI-----12----------12----------12------13----------13----------13--I
GbI---------12----------12------------------12----------12----------I
DbI-12----------12----------12------12----------12----------12------I
AbI-----------------------------------------------------------------I
EbI-----------------------------------------------------------------I
  I                                                                 I
EbI-----------------------------------------------------------------I
BbI-----------------------------------------------------------------I
GbI-5-------5-------5-------5---------------------------------------I
DbI-5-------5-------5-------5-------7-------7-------7-------7-------I
AbI-3-------3-------3-------3-------7-------7-------7-------7-------I
EbI---------------------------------5-------5-------5-------5-------I


EbI-----------------------------------------------------------------I
BbI-----12----------12----------12------10----------10----------10--I
GbI---------12----------12------------------12----------12----------I
DbI-12----------12----------12------12----------12----------12------I
AbI-----------------------------------------------------------------I
EbI-----------------------------------------------------------------I
  I                                                                 I
EbI-----------------------------------------------------------------I
BbI-----------------------------------------------------------------I
GbI-9-------9-------9-------9---------------------------------------I
DbI-9-------9-------9-------9-------5-------5-------5-------5-------I
AbI-7-------7-------7-------7-------5-------5-------5-------5-------I
EbI---------------------------------3-------3-------3-------3-------I


EbI-----------------------------------------------------------------I
BbI-----12----------12----------12--13--13--13--13--13--13--13--13--I
GbI---------12----------12----------12--12--12--12--12--12--12--12--I
DbI-12----------12----------12------12--12--12--12--12--12--12--12--I
AbI-----------------------------------------------------------------I
EbI-----------------------------------------------------------------I
  I                                                                 I
EbI-----------------------------------------------------------------I
BbI-----------------------------------------------------------------I
GbI-5-------5-------5-------5---------------------------------------I
DbI-5-------5-------5-------5-------7---7---7---7---7---7---7---7---I
AbI-3-------3-------3-------3-------7---7---7---7---7---7---7---7---I
EbI---------------------------------5---5---5---5---5---5---5---5---I


EbI-----------------------------------------------------------------I
BbI-12--12--12--12--12--12--12--12--10--10--10--10--10--10--10--10--I
GbI-12--12--12--12--12--12--12--12--12--12--12--12--12--12--12--12--I
DbI-12--12--12--12--12--12--12--12--12--12--12--12--12--12--12--12--I
AbI-----------------------------------------------------------------I
EbI-----------------------------------------------------------------I
  I                                                                 I
EbI-----------------------------------------------------------------I
BbI-----------------------------------------------------------------I
GbI-9---9---9---9---9---9---9---9-----------------------------------I
DbI-9---9---9---9---9---9---9---9---5---5---5---5---5---5---5---5---I
AbI-7---7---7---7---7---7---7---7---5---5---5---5---5---5---5---5---I
EbI---------------------------------3---3---3---3---3---3---3---3---I
   'I've been a                     good            little

EbI---------------------------------0-------------------------------I
BbI-12--12--12--12--12----12---12---1-------------------------------I
GbI-12--12--12--12--12----12---12---2-------------------------------I
DbI-12--12--12--12--12----12---12---2-------------------------------I
AbI---------------------------------0-------------------------------I
EbI-----------------------------------------------------------------I
  I                                                                 I
EbI---------------------------------0-------------------------------I
BbI---------------------------------1-------------------------------I
GbI-5---5---5---5---5-----5----5----2-------------------------------I
DbI-5---5---5---5---5-----5----5----2-------------------------------I
AbI-3---3---3---3---3-----3----3----0-------------------------------I
EbI-----------------------------------------------------------------I
    worker bee'                                     'I deserve a


OUTRO

EbI-----------------------------------------------------------------I
BbI-----------------------------------------------------------------I
GbI-12--12--12--12--12--12--12--12--14--14--14--14--14--14--14--14--I
DbI-x---x---x---x---x---x---x---x---x---x---x---x---x---x---x---x---I
AbI-10--10--10--10--10--10--10--10--12--12--12--12--12--12--12--12--I
EbI-----------------------------------------------------------------I
  I                                                                 I
EbI-----------------------------------------------------------------I
BbI-----------------------------------------------------------------I
GbI-5---5---5---5---5---5---5---5---7---7---7---7---7---7---7---7---I
DbI-5---5---5---5---5---5---5---5---7---7---7---7---7---7---7---7---I
AbI-3---3---3---3---3---3---3---3---5---5---5---5---5---5---5---5---I
EbI-----------------------------------------------------------------I
   gold star...'

EbI-----------------------------------------------------------------I
BbI-----------------------------------------------------------------I
GbI-12--12--12--12--12--12--12--12--14--14--14--14--14--14--14--14--I
DbI-x---x---x---x---x---x---x---x---x---x---x---x---x---x---x---x---I
AbI-10--10--10--10--10--10--10--10--12--12--12--12--12--12--12--12--I
EbI-----------------------------------------------------------------I
  I                                                                 I
EbI-----------------------------------------------------------------I
BbI-----------------------------------------------------------------I
GbI-5---5---5---5---5---5---5---5---7---7---7---7---7---7---7---7---I
DbI-5---5---5---5---5---5---5---5---7---7---7---7---7---7---7---7---I
AbI-3---3---3---3---3---3---3---3---5---5---5---5---5---5---5---5---I
EbI-----------------------------------------------------------------I
   'gold star...'

EbI-----------------------------------------------------------------I
BbI-----------------------------------------------------------------I
GbI-12--12--12--12--12--12--12--12--14--14--14--14--14--14--14--14--I
DbI-x---x---x---x---x---x---x---x---x---x---x---x---x---x---x---x---I
AbI-10--10--10--10--10--10--10--10--12--12--12--12--12--12--12--12--I
EbI-----------------------------------------------------------------I
  I                                                                 I
EbI-----------------------------------------------------------------I
BbI-----------------------------------------------------------------I
GbI-5---5---5---5---5---5---5---5---7---7---7---7---7---7---7---7---I
DbI-5---5---5---5---5---5---5---5---7---7---7---7---7---7---7---7---I
AbI-3---3---3---3---3---3---3---3---5---5---5---5---5---5---5---5---I
EbI-----------------------------------------------------------------I
   'gold star...'


EbI--------I
BbI--------I
GbI-12-----I
DbI-x------I
AbI-10-----I
EbI--------I
  I        I
EbI-3------I
BbI-3------I
GbI-4------I
DbI-5------I
AbI-5------I
EbI-3------I
 'today'


Any comments e-mail me: ColonelPanic.Tabs@googlemail.com


This is my first tab (don't let that deter you!). It sounds good to me =).
Any questions e-mail BWong872@yahoo.com

Verse

E|-----------------------------------------------------------------|
B|-----------------------------------------------------------------|
G|-8--8--8--8---17--17--17--17--17-17--17--------------------------|
D|-----------------------------------------------------------------|
A|-6--6--6--6---15--15--15--15--15-15--15--------------------------|
E|-----------------------------------------------------------------|

E|-----------------------------------------------------------------|
B|-----------------------------------------------------------------|
G|-12--12-12--12---10-10-10-10-10--10--10--------------------------|
D|-----------------------------------------------------------------|
A|-10--10-10--10---8--8--8--8--8---8---8---------------------------|
E|-----------------------------------------------------------------|x~8 (both)

Transition from Verse to Chorus:

E|-------------|
B|-------------|
G|--5---3---4--|
D|--5---3---4--|
A|--3---1---2--|
E|-------------|

Chorus:

E|-----------------------------------------------------------------------|
B|-----------------------------------------------------------------------|
G|-------3--3---5--5--5--5-------------------------3-3-3-3---------------|
D|-1--1--3--3---5--5--5--5---5--5--5--5---1-1-1-1--3-3-3-3--6-6-6-6-6-6-6|
A|-1--1--1--1---3--3--3--3---5--5--5--5---1-1-1-1--1-1-1-1--6-6-6-6-6-6-6|
E|---------------------------3--3--3--3---------------------4-4-4-4-4-4-4|x2
The chorus was the hardest part for me to tab.

2nd time through, finish with
E|-----------|
B|-----------|
G|-----------|
D|--8--------|
A|--8--------|
E|--6-x~8----|

Verse

E|-----------------------------------------------------------------|
B|-----------------------------------------------------------------|
G|-8--8--8--8---17--17--17--17--17-17--17--------------------------|
D|-----------------------------------------------------------------|
A|-6--6--6--6---15--15--15--15--15-15--15--------------------------|
E|-----------------------------------------------------------------|

E|-----------------------------------------------------------------|
B|-----------------------------------------------------------------|
G|-12--12-12--12---10-10-10-10-10--10--10--------------------------|
D|-----------------------------------------------------------------|
A|-10--10-10--10---8--8--8--8--8---8---8---------------------------|
E|-----------------------------------------------------------------|
*This is played in the background the first (2?) times through with
this played over it:

E|----------------------------------------------------|
B|----------------------------------------------------|
G|-8--8----17--17--17--17--17-17--17----15--15----12--|
D|----------------------------------------------------|
A|-6--6----15--15--15--15--15-15--15----13--13----10--|
E|----------------------------------------------------|

E|--------------------------------------|
B|--------------------------------------|
G|----10-10-10-10-10--12--12/11/12--8---|
D|--------------------------------------|
A|----8--8--8--8--8---10--10/11/10--6---|
E|--------------------------------------|

E|--------------------------------------|
B|--------------------------------------|
G|-10/13--12---10--8-------------8--10--|
D|--------------------8--5/6--8---------|
A|-8/11---10---8---6-------------6--8---|
E|--------------------6--3/4--6---------|

E|---------------------------------------|
B|---------------------------------------|
G|----10-10-10-10-10--12--12/11--12--8---|
D|---------------------------------------|
A|----8--8--8--8--8---10--10/11--10--6---|
E|---------------------------------------|

Transition from Verse to Chorus:

E|-------------|
B|-------------|
G|--5---3---4--|
D|--5---3---4--|
A|--3---1---2--|
E|-------------|

Chorus:

E|-----------------------------------------------------------------------|
B|-----------------------------------------------------------------------|
G|-------3--3---5--5--5--5-------------------------3-3-3-3---------------|
D|-1--1--3--3---5--5--5--5---5--5--5--5---1-1-1-1--3-3-3-3--6-6-6-6-6-6-6|
A|-1--1--1--1---3--3--3--3---5--5--5--5---1-1-1-1--1-1-1-1--6-6-6-6-6-6-6|
E|---------------------------3--3--3--3---------------------4-4-4-4-4-4-4|x2

2nd time through, finish with
E|---------|
B|---------|
G|---------|
D|--8------|
A|--8------|
E|--6-x~8--|

Bridge (?)

E|-----------------------------------------------------------------|
B|-----------------------------------------------------------------|
G|--12--12---------12--12---------13--13---------13--13------------|
D|---------13--13---------13--13---------15--15----------15--15----|
A|-----------------------------------------------------------------|
E|-----------------------------------------------------------------|

E|-----------------------------------------------------------------|
B|-----------------------------------------------------------------|
G|--12--12---------12--12------------------------------------------|
D|---------13--13---------13--13----------17--17----------15--15---|
A|--------------------------------13---13----------13--13----------|
E|-----------------------------------------------------------------|
*This is played in the background throughout this part. 
*I end on the 13th fret of the B string (slightly bent).

Riff:

E|-------------------------------------------------|
B|-------------------------------------------------|
G|-------8--------------3-----------5--------------|
D|----8-----8-------3-----3------5----5------4-----|
A|-6-------------1------------3------------4---4---|
E|---------------------------------------6---------|

E|-----------------------------|
B|-----------------------------|
G|------8----------3-----------|
D|---8----8-----3----3----6~---|
A|-6----------1-----------6~---|
E|------------------------4~---|

Chorus:
*Slightly different.

E|-----------------------------------------------------------------------|
B|-----------------------------------------------------------------------|
G|-------3--3---5--5--5--5-------------------------3-3-3-3---------------|
D|-1--1--3--3---5--5--5--5---5--5--5--5---1-1-1-1--3-3-3-3--6-6-6-6-6-6-6|
A|-1--1--1--1---3--3--3--3---5--5--5--5---1-1-1-1--1-1-1-1--6-6-6-6-6-6-6|
E|---------------------------3--3--3--3---------------------4-4-4-4-4-4-4|

E|---------------------------------------------------------------------|
B|---------------------------------------------------------------------|
G|-------------3--3--3--3--5--5--5--5-------------------------3-3-3-3--|
D|-1--1--1--1--3--3--3--3--5--5--5--5---5--5--5--5---1-1-1-1--3-3-3-3--|
A|-1--1--1--1--1--1--1--1--3--3--3--3---5--5--5--5---1-1-1-1--1-1-1-1--|
E|--------------------------------------3--3--3--3---------------------|

Outro:

E|-----------------------------------------------------------------|
B|-----------------------------------------------------------------|
G|-------3-3-------------------------------------3-3---------------|
D|-1--1--3-3---6-6--5-5---1-1--5-5-6-6-6-6--1-1--3-3--6-6-5-5------|
A|-1--1--1-1---6-6--5-5---1-1--5-5-6-6-6-6--1-1--1-1--6-6-5-5------|
E|-------------4-4--3-3--------3-3-4-4-4-4------------4-4-3-3------|

E|-------------------------------------|
B|-------------------------------------|
G|-----------------3-3-3-3-3-3-3-3--8~-|
D|-1-1-------------3-3-3-3-3-3-3-3--8~-|
A|-1-1-x a bunch---1-1-1-1-1-1-1-1--6~-|
E|-------------------------------------|



-------------------------------------------------------------------------------
			     HER WORDS DESTROYED MY PLANET - Motion City Soundtrack
-------------------------------------------------------------------------------
Tabbed by: Stuart Drake
Email: stuart_drake4@hotmail.com

Tuning: Standard

INTRO PART A:

e|---------------------------------------------------------------------------|
B|---------------------------------------------------------------------------|
G|--4/6----------------------------------------------------------------------|
D|--4/6-2-2-2-2-2-2-2-2-2-2-2-2-2-2-2-2-2-4-6-6-6-6-6-6-6-6-6-6-6-6-6-6------|
A|--2/4-2-2-2-2-2-2-2-2-2-2-2-2-2-2-2-2-2-4-6-6-6-6-6-6-6-6-6-6-6-6-6-6------|
E|------0-0-0-0-0-0-0-0-0-0-0-0-0-0-0-0-0-2-4-4-4-4-4-4-4-4-4-4-4-4-4-4--x2--|
        x x x x x x x x x x x x x x x x x x x x x x x x x x x x x x x x

            Maybe you were right after all      Maybe I'm just bad news
            I've been drowning in memories      Call it residual blues

e|---------------------------------------------------------------------------|
B|---------------------------------------------------------------------------|
G|---------------------------------------------------------------------------|
D|--7-7-7-7-7-7-7-7-7-7-7-7-7-7-7-7-9-9-9-9-9-9-9-9-9-9-9-9-9-9-9-9----------|
A|--7-7-7-7-7-7-7-7-7-7-7-7-7-7-7-7-9-9-9-9-9-9-9-9-9-9-9-9-9-9-9-9----------|
E|--5-5-5-5-5-5-5-5-5-5-5-5-5-5-5-5-7-7-7-7-7-7-7-7-7-7-7-7-7-7-7-7----------|
    x x x x x x x x x x x x x x x x x x x x x x x x x x x x x x x x

        I fell asleep watching   "Veronica Mars" again...

INTRO PART B:

Rhythm guitar:

e|-------------------------------|
B|-------------------------------|
G|--------------4-6--------------|
D|--2-2-2-2-2-2-4-6--------------|
A|--2-2-2-2-2-2-2-4--------------|
E|--0-0-0-0-0-0-----x8-----------|

Lead Guitar/Synth:

e|---------------------------------------------------------------------------|
B|--5-5-5-5-5-4-2-0-5-5-5-5-5-7-4-4-5-5-5-5-5-4-2-0-2-2-2-0-2-0-4------------|
G|---------------------------------------------------------------------------|
D|---------------------------------------------------------------------------|
A|-----------------------------------------------------------------x2--------|
E|---------------------------------------------------------------------------|

VERSE 1:

e|---------------------------------------------------------------------------|
B|---------------------------------------------------------------------------|
G|------------------------------------------------------------------4/6------|
D|--2-2-2-2-2-2-2-2-2-2-2-2-2-2-2-2-2-4-6-6-6-6-6-6-6-6-6-6-6-6-6-6-4/6------|
A|--2-2-2-2-2-2-2-2-2-2-2-2-2-2-2-2-2-4-6-6-6-6-6-6-6-6-6-6-6-6-6-6-2/4------|
E|--0-0-0-0-0-0-0-0-0-0-0-0-0-0-0-0-0-2-4-4-4-4-4-4-4-4-4-4-4-4-4-4------x2--|
    x x x x x x x x x x x x x x x x x x x x x x x x x x x x x x x x

  I still fucked with that tourniquet  I tried to squeeze on your dreams
    Slung it on, it's a perfect fit      What do you suppose that means?

PRECHORUS:

e|---------------------------------------------------------------------------|
B|---------------------------------------------------------------------------|
G|---------------------------------------------------------------------------|
D|--7-7-7-7-7-7-7-7-7-7-7-7-7-7-7-7-9-9-9-9-9-9-9-9-9-9-9-9-9-9-9-9----------|
A|--7-7-7-7-7-7-7-7-7-7-7-7-7-7-7-7-9-9-9-9-9-9-9-9-9-9-9-9-9-9-9-9----------|
E|--5-5-5-5-5-5-5-5-5-5-5-5-5-5-5-5-7-7-7-7-7-7-7-7-7-7-7-7-7-7-7-7----------|

     My parents keep asking when you're planning on coming around...

CHORUS:

e|---------------------------------------------------------------------------|
B|---------------------------------------------------------------------------|
G|---------------------------------------------------------------------------|
D|--------2-2-2-2-4-4-4-4-7-7-7-7-7-7-7-7-----------7-7-7-7-7-7-7-7----------|
A|--------2-2-2-2-4-4-4-4-7-7-7-7-7-7-7-7-----------7-7-7-7-7-7-7-7----------|
E|--------0-0-0-0-2-2-2-2-5-5-5-5-5-5-5-5--x5-------5-5-5-5-5-5-5-5----------|

  If we'd only stayed  together                     Anything at all
  I might not have fallen apart
  But the words you said destroyed my planet
  and I stall before I start
   I stall before I start

INTRO PART B (AGAIN):

e|-------------------------------|
B|-------------------------------|
G|--------------4-6--------------|
D|--2-2-2-2-2-2-4-6--------------|
A|--2-2-2-2-2-2-2-4--------------|
E|--0-0-0-0-0-0-----x4-----------|

Lead Guitar/Synth:

e|---------------------------------------------------------------------------|
B|--5-5-5-5-5-4-2-0-5-5-5-5-5-7-4-4-5-5-5-5-5-4-2-0-2-2-2-0-2-0-4------------|
G|---------------------------------------------------------------------------|
D|---------------------------------------------------------------------------|
A|-----------------------------------------------------------------x2--------|
E|---------------------------------------------------------------------------|

VERSE 2:

Rhythm guitar:

e|---------------------------------------------------------------------------|
B|---------------------------------------------------------------------------|
G|------------------------------------------------------------------4/6------|
D|--2-2-2-2-2-2-2-2-2-2-2-2-2-2-2-2-2-4-6-6-6-6-6-6-6-6-6-6-6-6-6-6-4/6------|
A|--2-2-2-2-2-2-2-2-2-2-2-2-2-2-2-2-2-4-6-6-6-6-6-6-6-6-6-6-6-6-6-6-2/4------|
E|--0-0-0-0-0-0-0-0-0-0-0-0-0-0-0-0-0-2-4-4-4-4-4-4-4-4-4-4-4-4-4-4------x2--|
    x x x x x x x x x x x x x x x x x x x x x x x x x x x x x x x x

        Got a job at a common grounds    I finally shaved off that beard
  Sold my Xbox to Jimmy down the street  I even quit smoking weed

Lead guitar:

e|---------------------------------------------------------------------------|
B|---------------------------------------------------------------------------|
G|-----------------------4--6-4-3--------------------------------------------|
D|--2-4-2-4-6--6-4-2-1-------------------------------------------------------|
A|---------------------4-----------------------------------------------------|
E|-------------------------------------x2------------------------------------|

PRECHORUS:

e|---------------------------------------------------------------------------|
B|---------------------------------------------------------------------------|
G|---------------------------------------------------------------------------|
D|--7-7-7-7-7-7-7-7-7-7-7-7-7-7-7-7-9-9-9-9-9-9-9-9-9-9-9-9-9-9-9-9----------|
A|--7-7-7-7-7-7-7-7-7-7-7-7-7-7-7-7-9-9-9-9-9-9-9-9-9-9-9-9-9-9-9-9----------|
E|--5-5-5-5-5-5-5-5-5-5-5-5-5-5-5-5-7-7-7-7-7-7-7-7-7-7-7-7-7-7-7-7----------|

     I'm taking an online course, I'm learning to speak Japanese...

CHORUS:

e|---------------------------------------------------------------------------|
B|---------------------------------------------------------------------------|
G|---------------------------------------------------------------------------|
D|--------2-2-2-2-4-4-4-4-7-7-7-7-7-7-7-7-----------7-7-7-7-7-7-7-7----------|
A|--------2-2-2-2-4-4-4-4-7-7-7-7-7-7-7-7-----------7-7-7-7-7-7-7-7----------|
E|--------0-0-0-0-2-2-2-2-5-5-5-5-5-5-5-5--x5-------5-5-5-5-5-5-5-5----------|

  If we'd only stayed  together                     Anything at all
  I might not have fallen apart
  But the words you said destroyed my planet
  and I stall before I start
   I stall before I start

e|---------------------------------------------------------------------------|
B|---------------------------------------------------------------------------|
G|--4-6-6-6-6-6-6-6----------------------------------------------------------|
D|--4-6-6-6-6-6-6-6-7-7-7-7-7-7-7-7-2-2-2-2-2-2-2-2-4-4-4-4-4-4-4-4----------|
A|--2/4-4-4-4-4-4-4-7-7-7-7-7-7-7-7-2-2-2-2-2-2-2-2-4-4-4-4-4-4-4-4----------|
E|------------------5-5-5-5-5-5-5-5-0-0-0-0-0-0-0-0-2-2-2-2-2-2-2-2---x4-----|

    The things that used to mean so much to me
    Have gone the way of dinosaurs, hopes and dreams and everything
    All I want for you to be is happy, or something
    I guess anything is better than the time you spent hoping I'd get it sorted out!

e|-----------------------------------------------------------------------------|
B|-----------------------------------------------------------------------------|
G|----------------------------6-6-6-6-4-6--------------------------------------|
D|--2-2-2-2-2---4-6-----------x-x-x-x-4-6--------------------------------------|
A|--2-2-2-2-2---4-6-----------4-4-4-4-2/4--------------------------------------|
E|--0-0-0-0-0-X-2/4--x3--------------------------------------------------------|

INTRO PART B (AGAIN):

e|-------------------------------|
B|-------------------------------|
G|--------------4-6--------------|
D|--2-2-2-2-2-2-4-6--------------|
A|--2-2-2-2-2-2-2-4--------------|
E|--0-0-0-0-0-0-----x4-----------|

Lead Guitar/Synth:

e|---------------------------------------------------------------------------|
B|--5-5-5-5-5-4-2-0-5-5-5-5-5-7-4-4-5-5-5-5-5-4-2-0-2-2-2-0-2-0-4------------|
G|---------------------------------------------------------------------------|
D|---------------------------------------------------------------------------|
A|-----------------------------------------------------------------x2--------|
E|---------------------------------------------------------------------------|

PRECHORUS:

e|---------------------------------------------------------------------------|
B|---------------------------------------------------------------------------|
G|---------------------------------------------------------------------------|
D|--7-7-7-7-7-7-7-7-7-7-7-7-7-7-7-7-9-9-9-9-9-9-9-9-9-9-9-9-9-9-9-9----------|
A|--7-7-7-7-7-7-7-7-7-7-7-7-7-7-7-7-9-9-9-9-9-9-9-9-9-9-9-9-9-9-9-9----------|
E|--5-5-5-5-5-5-5-5-5-5-5-5-5-5-5-5-7-7-7-7-7-7-7-7-7-7-7-7-7-7-7-7---x2-----|

     I sent you a postcard, but the post office sent it back....
     They said the building's been torn down, I just miss what I thought we both had

FINAL CHORUS:

e|---------------------------------------------------------------------------|
B|---------------------------------------------------------------------------|
G|---------------------------------------------------------------------------|
D|--------2-2-2-2-4-4-4-4-7-7-7-7-7-7-7-7------------------------------------|
A|--------2-2-2-2-4-4-4-4-7-7-7-7-7-7-7-7------------------------------------|
E|--------0-0-0-0-2-2-2-2-5-5-5-5-5-5-5-5--x4--------------------------------|

  If we'd only stayed  together
  I might not have fallen apart
  But the words you said destroyed my planet
  It's all my fucking fault!

e|---------------------------------------------------------------------------|
B|---------------------------------------------------------------------------|
G|---------------------------------------------------------------------------|
D|--------2-2-2-2-4-4-4-4-7-7-7-7-7-7-7-7-----------7-7-7-7-7-7-4-6----------|
A|--------2-2-2-2-4-4-4-4-7-7-7-7-7-7-7-7-----------7-7-7-7-7-7-4-6----------|
E|--------0-0-0-0-2-2-2-2-5-5-5-5-5-5-5-5--x5-------5-5-5-5-5-5-2/4----------|

  If we'd only stayed  together                     Anything at all
  I might not have fallen apart
  But the words you said destroyed my planet
  and I stall before I start
   I stall before I start


And that's the whole song, in order. Shouldn't be any mistakes, any comments or 
feel free to comment the tab or e-mail me.


| /  slide up
| \  slide down
| h  hammer-on
| p  pull-off
| ~  vibrato
| +  harmonic
| x  Mute note
===============================================================================


Song: Disappear
Band: Motion City Soundtrack
Album: My Dinosaur Life
Tuning: Standard

     Overall, this song is very easy. Keep it light on the comments, no rubbish, ok?
is my first tab I've never actually had time to attempt to finish, and I've known how much
you peeps out there have been wanting to play it. (yes, i do know that the CAN YOU FEEL 
part is off. i just couldn't find it out. comment to help me, and i like how it
i'll put it in.)

| /   slide up
| \   slide down
| h   hammer-on
| p   pull-off
| ~   vibrato
| +   harmonic
| x   Mute note
| b   Bend
| pb  Pre-bend
| br  Bend release
| pbr Pre-bend release
| brb Bend release bend


 Let Ring
|---------|-----------------------------------------------------------------|
|---------|-----------------------------------------------------------------|
|-3-------|--3----------------3---------------------------------------------|
|-3-------|--3----------------3---------------------------------------------|
|-1-------|--1----------------1---------------------------------------------|
|---------|-----------------------------------------------------------------|
             To the Deep End, To the heartline
|---------------------------------------------------------------------------|
|---------------------------------------------------------------------------|
|---------------------------------------------------------------------------|
|-4-4-4-4-4-4-4-4--6-6-6-6-6-6-6-6------------------------------------------|
|-4-4-4-4-4-4-4-4--6-6-6-6-6-6-6-6------------------------------------------|
|-2-2-2-2-2-2-2-2--4-4-4-4-4-4-4-4------------------------------------------|

|---------------------------------------------------------------------------|
|---------------------------------------------------------------------------|
|-3-3-3-3-3-3-3-3-----------------------------------------------------------|
|-3-3-3-3-3-3-3-3--3-3-3-3-3-3-3-3--4-4-4-4-4-4-4-4--6-6-6-6-6-6-6-6--------|
|-1-1-1-1-1-1-1-1--3-3-3-3-3-3-3-3--4-4-4-4-4-4-4-4--6-6-6-6-6-6-6-6--------|
|------------------1-1-1-1-1-1-1-1--2-2-2-2-2-2-2-2--4-4-4-4-4-4-4-4--------|

|---------------------------------------------------------------------------|
|---------------------------------------------------------------------------|
|3-3-3-3-3-3-3-3------------------------------------------------------------|
|3-3-3-3-3-3-3-3--3-3-3-3-3-3-3-3--4-4-4-4-4-4-4-4--6-6-6-6-6-6-6-6---------|
|1-1-1-1-1-1-1-1--3-3-3-3-3-3-3-3--4-4-4-4-4-4-4-4--6-6-6-6-6-6-6-6---------|
|-----------------1-1-1-1-1-1-1-1--2-2-2-2-2-2-2-2--4-4-4-4-4-4-4-4---------|

|-----------------------------------------------------------------------------|
|-----------------------------------------------------------------------------|
|3-3-3-3-3-3-3-3--------------------------------------------------------------|
|3-3-3-3-3-3-3-3--3-3-3-3-3-3-3-3--4-4-4-4-4-4-4-4--6-6-6-6-6-6-6-6-----------|
|1-1-1-1-1-1-1-1--3-3-3-3-3-3-3-3--4-4-4-4-4-4-4-4--6-6-6-6-6-6-6-6-----------|
|-----------------1-1-1-1-1-1-1-1--2-2-2-2-2-2-2-2--4-4-4-4-4-4-4-4-----------|

|---------------------------------------------------------------------------|
|---------------------------------------------------------------------------|
|-----------------6-6-6-6-6-6-6-6-------------------------------------------|
|4-4-4-4-4-4-4-4--6-6-6-6-6-6-6-6--1-1-1-1-1-1-1-1--4-4-4-4-4-4-4-----------|
|4-4-4-4-4-4-4-4--4-4-4-4-4-4-4-4--1-1-1-1-1-1-1-1--4-4-4-4-4-4-4-----------|
|2-2-2-2-2-2-2-2-------------------x-x-x-x-x-x-x-x--2-2-2-2-2-2-2-----------|

|---------------------------------------------------------------------------|
|---------------------------------------------------------------------------|
|---------------------------------------------------------------------------|
|6-6-6-6-6-6-6-6------------------------------------------------------------|
|6-6-6-6-6-6-6-6------------------------------------------------------------|
|4-4-4-4-4-4-4-4------------------------------------------------------------|

|---------------------------------------------------------------------------|
|---------------------------------------------------------------------------|
|-----------------6-6-6-6-6-6-6-6-------------------------------------------|
|4-4-4-4-4-4-4-4--6-6-6-6-6-6-6-6--1-1-1-1-1-1-1-1--4-4-4-4-4-4-4-----------|
|4-4-4-4-4-4-4-4--4-4-4-4-4-4-4-4--1-1-1-1-1-1-1-1--4-4-4-4-4-4-4-----------|
|2-2-2-2-2-2-2-2-------------------x-x-x-x-x-x-x-x--2-2-2-2-2-2-2-----------|

|---------------------------------------------------------------------------|
|---------------------------------------------------------------------------|
|---------------------------------------------------------------------------|
|6-6-6-6-6-6-6-6------------------------------------------------------------|
|6-6-6-6-6-6-6-6------------------------------------------------------------|
|4-4-4-4-4-4-4-4------------------------------------------------------------|

|---------------------------------------------------------------------------|
|------------------13-9----------------------------13-9---------------------|
|3---10-11-10-13-8--------------15-13--10-11-10-13--------------------------|
|3----------------------11-10-8-------------------------11-10-8-6-4-2-------|
|1--------------------------------------------------------------------------|
|---------------------------------------------------------------------------|

|---------------------------------------------------------------------------|
|---------------------------------------------------------------------------|
|---------------------------------------------------------------------------|
|-------------------6----6----3---------------------------------------------|
|-------------------6----6----3---------------------------------------------|
|-------------------4----4----1---------------------------------------------|
 Until it sticks, until it sticks

|---------------------------------------------------------------------------|
|---------------------------------------------------------------------------|
|-----------------6-6-6-6-6-6-6-6-------------------------------------------|
|4-4-4-4-4-4-4-4--6-6-6-6-6-6-6-6--1-1-1-1-1-1-1-1--4-4-4-4-4-4-4-----------|
|4-4-4-4-4-4-4-4--4-4-4-4-4-4-4-4--1-1-1-1-1-1-1-1--4-4-4-4-4-4-4-----------|
|2-2-2-2-2-2-2-2-------------------x-x-x-x-x-x-x-x--2-2-2-2-2-2-2-----------|

|---------------------------------------------------------------------------|
|---------------------------------------------------------------------------|
|---------------------------------------------------------------------------|
|6-6-6-6-6-6-6-6------------------------------------------------------------|
|6-6-6-6-6-6-6-6------------------------------------------------------------|
|4-4-4-4-4-4-4-4------------------------------------------------------------|

|---------------------------------------------------------------------------|
|---------------------------------------------------------------------------|
|-----------------6-6-6-6-6-6-6-6-------------------------------------------|
|4-4-4-4-4-4-4-4--6-6-6-6-6-6-6-6--1-1-1-1-1-1-1-1--4-4-4-4-4-4-4-----------|
|4-4-4-4-4-4-4-4--4-4-4-4-4-4-4-4--1-1-1-1-1-1-1-1--4-4-4-4-4-4-4-----------|
|2-2-2-2-2-2-2-2-------------------x-x-x-x-x-x-x-x--2-2-2-2-2-2-2-----------|

|---------------------------------------------------------------------------|
|---------------------------------------------------------------------------|
|---------------------------------------------------------------------------|
|6-6-6-6-6-6-6-6------------------------------------------------------------|
|6-6-6-6-6-6-6-6------------------------------------------------------------|
|4-4-4-4-4-4-4-4------------------------------------------------------------|

|---------------------------------------------------------------------------|
|---------------------------------------------------------------------------|
|-----------------6-6-6-6-6-6-6-6-------------------------------------------|
|4-4-4-4-4-4-4-4--6-6-6-6-6-6-6-6--1-1-1-1-1-1-1-1--4-4-4-4-4-4-4-----------|
|4-4-4-4-4-4-4-4--4-4-4-4-4-4-4-4--1-1-1-1-1-1-1-1--4-4-4-4-4-4-4-----------|
|2-2-2-2-2-2-2-2-------------------x-x-x-x-x-x-x-x--2-2-2-2-2-2-2-----------|

|---------------------------------------------------------------------------|
|---------------------------------------------------------------------------|
|---------------------------------------------------------------------------|
|6-6-6-6-6-6-6-6------------------------------------------------------------|
|6-6-6-6-6-6-6-6------------------------------------------------------------|
|4-4-4-4-4-4-4-4------------------------------------------------------------|

|---------------------------------------------------------------------------|
|---------------------------------------------------------------------------|
|-----------------6-6-6-6-6-6-6-6-------------------------------------------|
|4-4-4-4-4-4-4-4--6-6-6-6-6-6-6-6--1-1-1-1-1-1-1-1--4-4-4-4-4-4-4-----------|
|4-4-4-4-4-4-4-4--4-4-4-4-4-4-4-4--1-1-1-1-1-1-1-1--4-4-4-4-4-4-4-----------|
|2-2-2-2-2-2-2-2-------------------x-x-x-x-x-x-x-x--2-2-2-2-2-2-2-----------|

|---------------------------------------------------------------------------|
|---------------------------------------------------------------------------|
|---------------------------------------------------------------------------|
|6-6-6-6-6-6-6-6------------------------------------------------------------|
|6-6-6-6-6-6-6-6------------------------------------------------------------|
|4-4-4-4-4-4-4-4------------------------------------------------------------|

|---------------------------------------------------------------------------|
|---------------------------------------------------------------------------|
|--8-88-88-88------8-88-88-88------8-88-88-88-------------------------------|
|--8-88-88-88------8-88-88-88------8-88-88-88------444-6--------------------|
|--6-66-66-66------6-66-66-66------6-66-66-66------444-6--------------------|
|-------------2/--------------2/--------------2/---222-4--------------------|

|---------------------------------------------------------------------------|
|---------------------------------------------------------------------------|
|--8-88-88-88------8-88-88-88------8-88-88-88-------------------------------|
|--8-88-88-88------8-88-88-88------8-88-88-88------444-6--------------------|
|--6-66-66-66------6-66-66-66------6-66-66-66------444-6--------------------|
|-------------2/--------------2/--------------2/---222-4--------------------|

|---------------------------------------------------------------------------|
|---------------------------------------------------------------------------|
|--8-88-88-88------8-88-88-88------8-88-88-88-------------------------------|
|--8-88-88-88------8-88-88-88------8-88-88-88------444-6--------------------|
|--6-66-66-66------6-66-66-66------6-66-66-66------444-6--------------------|
|-------------2/--------------2/--------------2/---222-4--------------------|

|---------------------------------------------------------------------------|
|---------------------------------------------------------------------------|
|--8-88-88-88------8-88-88-88------8-88-88-88-------------------------------|
|--8-88-88-88------8-88-88-88------8-88-88-88------444-6--------------------|
|--6-66-66-66------6-66-66-66------6-66-66-66------444-6--------------------|
|-------------2/--------------2/--------------2/---222-4--------------------|

|---------------------------------------------------------------------------|
|---------------------------------------------------------------------------|
|-3-3-3--5-5-5--6-6-6--8-8-8-----------3-3-3--5-5-5--6-6-6--8-8-8-----------|
|-3-3-3--5-5-5--6-6-6--8-8-8--6-6-6-6--3-3-3--5-5-5--6-6-6--8-8-8--6-6-6-6--|
|-1-1-1--3-3-3--4-4-4--6-6-6--6-6-6-6--1-1-1--3-3-3--4-4-4--6-6-6--6-6-6-6--|
|-----------------------------4-4-4-4------------------------------4-4-4-4--|

(palm muted)
|---------------------------------------------------------------------------|
|---------------------------------------------------------------------------|
|-----------------6-6-6-6-6-6-6-6-------------------------------------------|
|4-4-4-4-4-4-4-4--6-6-6-6-6-6-6-6--1-1-1-1-1-1-1-1--4-4-4-4-4-4-4-----------|
|4-4-4-4-4-4-4-4--4-4-4-4-4-4-4-4--1-1-1-1-1-1-1-1--4-4-4-4-4-4-4-----------|
|2-2-2-2-2-2-2-2-------------------x-x-x-x-x-x-x-x--2-2-2-2-2-2-2-----------|
 . . . . . . . .  . . . . . . . .  . . . . . . . .  . . . . . . .
|---------------------------------------------------------------------------|
|---------------------------------------------------------------------------|
|---------------------------------------------------------------------------|
|6-6-6-6-6-6-6-6------------------------------------------------------------|
|6-6-6-6-6-6-6-6------------------------------------------------------------|
|4-4-4-4-4-4-4-4------------------------------------------------------------|
 . . . . . . . .                                                  |Let Ring
|-----------------------------------------------------------------|-----------|
|-----------------------------------------------------------------|-----------|
|-----------------6-6-6-6-6-6-6-6---------------------------------|-----------|
|4-4-4-4-4-4-4-4--6-6-6-6-6-6-6-6--1-1-1-1-1-1-1-1--4-4-4-4-4-4-4-|--6--------|
|4-4-4-4-4-4-4-4--4-4-4-4-4-4-4-4--1-1-1-1-1-1-1-1--4-4-4-4-4-4-4-|--6--------|
|2-2-2-2-2-2-2-2-------------------x-x-x-x-x-x-x-x--2-2-2-2-2-2-2-|--4--------|
 . . . . . . . .  . . . . . . . .  . . . . . . . .  . . . . . . .     --------|

|---------------------------------------------------------------------------|
|---------------------------------------------------------------------------|
|-----------------6-6-6-6-6-6-6-6-------------------------------------------|
|4-4-4-4-4-4-4-4--6-6-6-6-6-6-6-6--1-1-1-1-1-1-1-1--4-4-4-4-4-4-4-----------|
|4-4-4-4-4-4-4-4--4-4-4-4-4-4-4-4--1-1-1-1-1-1-1-1--4-4-4-4-4-4-4-----------|
|2-2-2-2-2-2-2-2-------------------x-x-x-x-x-x-x-x--2-2-2-2-2-2-2-----------|

|---------------------------------------------------------------------------|
|---------------------------------------------------------------------------|
|---------------------------------------------------------------------------|
|6-6-6-6-6-6-6-6------------------------------------------------------------|
|6-6-6-6-6-6-6-6------------------------------------------------------------|
|4-4-4-4-4-4-4-4------------------------------------------------------------|

|---------------------------------------------------------------------------|
|---------------------------------------------------------------------------|
|-----------------6-6-6-6-6-6-6-6-------------------------------------------|
|4-4-4-4-4-4-4-4--6-6-6-6-6-6-6-6--1-1-1-1-1-1-1-1--4-4-4-4-4-4-4-----------|
|4-4-4-4-4-4-4-4--4-4-4-4-4-4-4-4--1-1-1-1-1-1-1-1--4-4-4-4-4-4-4-----------|
|2-2-2-2-2-2-2-2-------------------x-x-x-x-x-x-x-x--2-2-2-2-2-2-2-----------|

|---------------------------------------------------------------------------|
|---------------------------------------------------------------------------|
|---------------------------------------------------------------------------|
|6-6-6-6-6-6-6-6------------------------------------------------------------|
|6-6-6-6-6-6-6-6------------------------------------------------------------|
|4-4-4-4-4-4-4-4------------------------------------------------------------|
|---------------------------------------------------------------------------|
|---------------------------------------------------------------------------|
|-----------------6-6-6-6-6-6-6-6-------------------------------------------|
|4-4-4-4-4-4-4-4--6-6-6-6-6-6-6-6--1-1-1-1-1-1-1-1--4-4-4-4-4-4-4-----------|
|4-4-4-4-4-4-4-4--4-4-4-4-4-4-4-4--1-1-1-1-1-1-1-1--4-4-4-4-4-4-4-----------|
|2-2-2-2-2-2-2-2-------------------x-x-x-x-x-x-x-x--2-2-2-2-2-2-2-----------|

|---------------------------------------------------------------------------|
|---------------------------------------------------------------------------|
|---------------------------------------------------------------------------|
|6-6-6-6-6-6-6-6------------------------------------------------------------|
|6-6-6-6-6-6-6-6------------------------------------------------------------|
|4-4-4-4-4-4-4-4------------------------------------------------------------|

|---------------------------------------------------------------------------|
|---------------------------------------------------------------------------|
|-----------------6-6-6-6-6-6-6-6-------------------------------------------|
|4-4-4-4-4-4-4-4--6-6-6-6-6-6-6-6--1-1-1-1-1-1-1-1--4-4-4-4-4-4-4-----------|
|4-4-4-4-4-4-4-4--4-4-4-4-4-4-4-4--1-1-1-1-1-1-1-1--4-4-4-4-4-4-4-----------|
|2-2-2-2-2-2-2-2-------------------x-x-x-x-x-x-x-x--2-2-2-2-2-2-2-----------|

|---------------------------------------------------------------------------|
|---------------------------------------------------------------------------|
|---------------------------------------------------------------------------|
|6-6-6-6-6-6-6-6------------------------------------------------------------|
|6-6-6-6-6-6-6-6------------------------------------------------------------|
|4-4-4-4-4-4-4-4------------------------------------------------------------|

Outro
|---------------------------------------------------------------------------|
|---------------------------------------------------------------------------|
|-----------------6-6-6-6-6-6-6-6-------------------------------------------|
|4-4-4-4-4-4-4-4--6-6-6-6-6-6-6-6--1-1-1-1-1-1-1-1--4-4-4-4-4-4-4-----------|
|4-4-4-4-4-4-4-4--4-4-4-4-4-4-4-4--1-1-1-1-1-1-1-1--4-4-4-4-4-4-4-----------|
|2-2-2-2-2-2-2-2-------------------x-x-x-x-x-x-x-x--2-2-2-2-2-2-2-----------|

                                                     | Let Ring
|----------------------------------------------------|----------------------|
|----------------------------------------------------|----------------------|
|----------------------------------------------------|----------------------|
|6-6-6-6-6-6-6-6--1-1-1-1-1-1-1-1--4-4-4-4--6-6-6-6--|---1------------------|
|6-6-6-6-6-6-6-6--1-1-1-1-1-1-1-1--4-4-4-4--6-6-6-6--|---1------------------|
|4-4-4-4-4-4-4-4--x-x-x-x-x-x-x-x--2-2-2-2--4-4-4-4--|---x------------------|
                                                     |


Pretty simple stuff really.
I think I've got it all in there.
I may try and tab the bass part later.
Hit me up with any corrections or comments.

"...And my eyes are pouring nightly."

Chorus Lead x2
e-------------------------------------------|
B-------------------------------------------|
G--8-10-8-6---------------------------------|
D------------8-10-8-6---8-10-8-6---8-10-8-6-|
A-------------------------------------------|
D-------------------------------------------|

e ---------------------------------|
B ---------------------------------|
G -5-4-5-3-------------------------|
D ---------8-10-8-6--8-10-8-6------|
A ----------------------------8--6-|
D ---------------------------------|


Chorus Rhythm: (Strumming)

"I swear the pharmaceuticals..."
e------------------------------------------|
B------------------------------------------|
G---------5---------8---------6------------|
D---------3---------6---------6------------|
A---------3---------6---------4------------|
D---------3---------6----------------------|

"The Things I take, The Things That Take Me"
e-----------|
B-----------|
G----6------|          (End on this.)
D----6------|
A----4------|
D-----------|

Riff #1:
e------------------------------------------------------|
B------------------------------------------------------|
G--13~-13~-------------------------8-8-8-8-8-8-8-8-----|
D-------------10-10-10-11-11-11-11---------------------|
A--11~-11~--------------------~------------------------|
D------------------------------------------------------|

e------------------------------------------------------|
B------------------------------------------------------|
G-----------------------------8-10-8-----------13~-13~-|
D--------10-10-10-11-11-11-11--------10----------------|
A------------------------~---------------------11~-11~-|
D------------------------------------------------------|

Chorus Lead & Rhythm

"I didn't know I'd get caught in the middle" (Strumming)
e--------------------------------------------|
B--------------------------------------------|
G---6---------8-------10---------------------|
D---6---------8-------8----------------------|
A---4---------6-------8----------------------|
D---------------------8-------~--------------|


"A myriad of bright ideas"
e--------------------------------------------------|
B--------------------------------------------------|
G-----------10-10-10-10--------------10-10-10-10---|
D-----------x--x--x--x---------------x--x--x--x----|
A-----------8--8--8--8---------------8--8--8--8----|
D--4-4-4-4------------------4-4-4-4----------------|


End With This (2:22)
e---------------------------------------------------------------------------|
B---------------------------------------------------------------------------|
G-----------10-10-10-10--------------10-10-10-10----------------------------|
D-----------x--x--x--x---------------x--x--x--x-----------------------------|
A-----------8--8--8--8---------------8--8--8--8-----------------------------|
D--4-4-4-4------------------4-4-4-4-------------4-4-4-1--4-4-4-1--4-4-4-4-4-|


Chorus
Catchy Part


Final Riff:
e--------------------------------------------|
B--------------------------------------------|
G---10-10--8-8---5-5--5\6--------------------|
D---x--x---x-x---x-x--x\4--------------------|
A---8--8---6-6---3-3--3\4--------------------|
D-----------------------4-----~--------------|


These are just the chords for each section of the song.. it's fairly easy to 
figure out the strumming pattern. 

			     History Lesson - Motion City Soundtrack
-------------------------------------------------------------------------------
Tabbed by: Sean
Email: welivewithwoe@hotmail.com

Tuning: Half-Step Up or Capo on the first fret

Intro/Chorus
e|-3----3----3---2-----|
B|-3----3----3---3-----|
G|-0----0----0---2-----|
D|-0----2----2---0-----| x2
A|-2----2----3---0-----|
E|-3----0----x---x-----|

Verse
e|-3---2-----------|
B|-3---3-----------|
G|-0---2-----------|
D|-2---0-----------| x3
A|-3---0-----------|
E|-x---x-----------|

Chorus x2

Verse x5

Chorus x2

Bridge
e|-3---2---3--------|
B|-3---3---3--------|
G|-0---2---0--------|
D|-2---0---2--------| x3
A|-2---0---3--------|
E|-0---x---x--------|


Bridge ends with the build-up of this chord:
e|-2-|
B|-3-|
G|-2-|
D|-0-| 
A|-0-|
E|-x-|

The rest of the songs is transposed a whole step up, or a capo on the 3rd fret. 

e|-3---3---3-----|
B|-3---3---3-----|
G|-0---0---0-----|
D|-0---2---2-----| x7
A|-2---2---3-----|
E|-3---0---x-----|

Then:
e|-2---|
B|-3---|
G|-2---|
D|-0---| x16
A|-0---|
E|-x---|

Ending on:
e|-3---|
B|-3---|
G|-0---|
D|-0---|
A|-2---|
E|-3---|



Motion City Soundtrack - Stand Too Close

Album: (2010) My Dinosaur Life
Instruments: Acoustic Guitar, Electric Guitar Lead, Electric Guitar Rhythm, Piano 
Arranged For Guitar
Tuning: Standard

Contributors: long!




Guitar 1: acoustic guitar


Verse 1
   3x
e||-------------------------------------|-------------------------------------||
B||-------------------------------------|-------------------------------------||
G||-----------9-9-9-x-7-7-7-x-7-7-7-x---|-------------------7-7-7-7-7-7-7-7---||
D||---7-7-7-x-9-9-9-x-7-7-7-x-7-7-7-x---|---4-4-4-x-2-2-2-x-7-7-7-7-7-7-7-7---||
A||---7-7-7-x-7-7-7-x-5-5-5-x-5-5-5-x---|---4-4-4-x-2-2-2-x-5-5-5-5-5-5-5-5---||
E||---5-5-5-x---------------------------|---2-2-2-x-0-0-0-x-------------------||


Verse 2
   3x
e||-------------------------------------|-------------------------------------||
B||-------------------------------------|-------------------------------------||
G||-----------9-9-9-x-7-7-7-x-7-7-7-x---|-------------------7-7-7-7-7-7-7-7---||
D||---7-7-7-x-9-9-9-x-7-7-7-x-7-7-7-x---|---4-4-4-x-2-2-2-x-7-7-7-7-7-7-7-7---||
A||---7-7-7-x-7-7-7-x-5-5-5-x-5-5-5-x---|---4-4-4-x-2-2-2-x-5-5-5-5-5-5-5-5---||
E||---5-5-5-x---------------------------|---2-2-2-x-0-0-0-x-------------------||


Verse 3
   3x
e||-------------------------------------|-------------------------------------||
B||-------------------------------------|-------------------------------------||
G||-----------9-9-9-x-7-7-7-x-7-7-7-x---|-------------------7-7-7-7-7-7-7-7---||
D||---7-7-7-x-9-9-9-x-7-7-7-x-7-7-7-x---|---4-4-4-x-2-2-2-x-7-7-7-7-7-7-7-7---||
A||---7-7-7-x-7-7-7-x-5-5-5-x-5-5-5-x---|---4-4-4-x-2-2-2-x-5-5-5-5-5-5-5-5---||
E||---5-5-5-x---------------------------|---2-2-2-x-0-0-0-x-------------------||


Breakdown
e||-------------------------------------------------------------------------------||
B||-------------------------------------------------------------------------------||
G||-------2~-----------6~-----------2~-----------6~-----6-------2~-----------6~---||
D||-----4------------7------------4------------7------7---7---4------------7------||
A||---2--------2-/-5--------5-\-2--------2-/-5--------------2--------2-/-5--------||
E||-------------------------------------------------------------------------------||

e||-------------------------------------||
B||-------------------------------------||
G||-------------------------------------||
D||---5-5-5-5-5-5-5-4-4-4-4-4-4-4-4-4---||
A||---5-5-5-5-5-5-5-5-5-5-5-5-5-5-5-5---||
E||---3-3-3-3-3-3-3-3-2-2-2-2-2-2-2-2---||


Riff
   3x
e||-------------------------------------|-------------------------------------||
B||-------------------------------------|-------------------------------------||
G||-----------9-9-9-x-7-7-7-x-7-7-7-x---|-------------------7-7-7-7-7-7-7-7---||
D||---7-7-7-x-9-9-9-x-7-7-7-x-7-7-7-x---|---4-4-4-x-2-2-2-x-7-7-7-7-7-7-7-7---||
A||---7-7-7-x-7-7-7-x-5-5-5-x-5-5-5-x---|---4-4-4-x-2-2-2-x-5-5-5-5-5-5-5-5---||
E||---5-5-5-x---------------------------|---2-2-2-x-0-0-0-x-------------------||


Verse 4
   3x
e||-------------------------------------|-------------------------------------||
B||-------------------------------------|-------------------------------------||
G||-----------9-9-9-x-7-7-7-x-7-7-7-x---|-------------------7-7-7-7-7-7-7-7---||
D||---7-7-7-x-9-9-9-x-7-7-7-x-7-7-7-x---|---4-4-4-x-2-2-2-x-7-7-7-7-7-7-7-7---||
A||---7-7-7-x-7-7-7-x-5-5-5-x-5-5-5-x---|---4-4-4-x-2-2-2-x-5-5-5-5-5-5-5-5---||
E||---5-5-5-x---------------------------|---2-2-2-x-0-0-0-x-------------------||


Verse 5
   3x
e||-------------------------------------|-------------------------------------||
B||-------------------------------------|-------------------------------------||
G||-----------9-9-9-x-7-7-7-x-7-7-7-x---|-------------------7-7-7-7-7-7-7-7---||
D||---7-7-7-x-9-9-9-x-7-7-7-x-7-7-7-x---|---4-4-4-x-2-2-2-x-7-7-7-7-7-7-7-7---||
A||---7-7-7-x-7-7-7-x-5-5-5-x-5-5-5-x---|---4-4-4-x-2-2-2-x-5-5-5-5-5-5-5-5---||
E||---5-5-5-x---------------------------|---2-2-2-x-0-0-0-x-------------------||


Breakdown
e||-------------------------------------------------------------------------------||
B||-------------------------------------------------------------------------------||
G||-------2~-----------6~-----------2~-----------6~-----6-------2~-----------6~---||
D||-----4------------7------------4------------7------7---7---4------------7------||
A||---2--------2-/-5--------5-\-2--------2-/-5--------------2--------2-/-5--------||
E||-------------------------------------------------------------------------------||

e||-------------------------------------||
B||-------------------------------------||
G||-------------------------------------||
D||---5-5-5-5-5-5-5-4-4-4-4-4-4-4-4-4---||
A||---5-5-5-5-5-5-5-5-5-5-5-5-5-5-5-5---||
E||---3-3-3-3-3-3-3-3-2-2-2-2-2-2-2-2---||


Verse 6
   3x
e||-------------------------------------|-------------------------------------||
B||-------------------------------------|-------------------------------------||
G||-----------9-9-9-x-7-7-7-x-7-7-7-x---|-------------------7-7-7-7-7-7-7-7---||
D||---7-7-7-x-9-9-9-x-7-7-7-x-7-7-7-x---|---4-4-4-x-2-2-2-x-7-7-7-7-7-7-7-7---||
A||---7-7-7-x-7-7-7-x-5-5-5-x-5-5-5-x---|---4-4-4-x-2-2-2-x-5-5-5-5-5-5-5-5---||
E||---5-5-5-x---------------------------|---2-2-2-x-0-0-0-x-------------------||

e||------------------------||
B||------------------------||
G||------------------------||
D||---4-4-4-x-2-2-2-x-5~---||
A||---4-4-4-x-2-2-2-x-5~---||
E||---2-2-2-x-0-0-0-x-3~---||


Riff
   3x
e||-------------------------------------|------------------------||
B||-------------------------------------|------------------------||
G||-----------9-9-9-x-7-7-7-x-7-7-7-x---|------------------------||
D||---7-7-7-x-9-9-9-x-7-7-7-x-7-7-7-x---|---4-4-4-4-2-2-2-2-7~---||
A||---7-7-7-x-7-7-7-x-5-5-5-x-5-5-5-x---|---4-4-4-4-2-2-2-2-7~---||
E||---5-5-5-x---------------------------|---2-2-2-2-0-0-0-0-5~---||


Verse 6
   3x
e||-------------------------------------|-------------------------||
B||-------------------------------------|-------------------------||
G||-----------9-9-9-x-7-7-7-x-7-7-7-x---|--------------------------||
D||---7-7-7-x-9-9-9-x-7-7-7-x-7-7-7-x---|---4-4-4-x-2-2-2-x-7-7~---||
A||---7-7-7-x-7-7-7-x-5-5-5-x-5-5-5-x---|---4-4-4-x-2-2-2-x-7-7~---||
E||---5-5-5-x---------------------------|---2-2-2-x-0-0-0-x-5-5~---||




Guitar 2: electric guitar lead


(Starts at 0:14) Verse 2
   3x
e||--------------------------------------|------------------------------------||
B||--------------------------------------|------------------------------------||
G||---9-9-9-9-9-9-9-9-9-9-9-9/11-9-9-9---|---9-9-9-9-9-9-9-9-9-9-9--7--9--9---||
D||--------------------------------------|------------------------------------||
A||--------------------------------------|------------------------------------||
E||--------------------------------------|------------------------------------||


Verse 3
   3x
e||--------------------------------------|------------------------------------||
B||--------------------------------------|------------------------------------||
G||---9-9-9-9-9-9-9-9-9-9-9-9/11-9-9-9---|---9-9-9-9-9-9-9-9-9-9-9--7--9--9---||
D||--------------------------------------|------------------------------------||
A||--------------------------------------|------------------------------------||
E||--------------------------------------|------------------------------------||


Breakdown
   3x
e||-------------9-10~---|----------------------------------------------------||
B||---9-10~-------------|----------------------------------------------------||
G||---------------------|--12-12-12-12-12-12-12-12-11-11-11-11-11-11-11-11---||
D||---------------------|----------------------------------------------------||
A||---------------------|----------------------------------------------------||
E||---------------------|----------------------------------------------------||


Riff
   3x
e||-------------------------------------------------|----------------------------||
B||-------------------------------------------------|----------------------------||
G||---9-9-9-9-9-9-9-/-11--\--9--\--6--\--4-\-2--/---|---7-7-7-7-\-6-6-6-6-\-2~---||
D||-------------------------------------------------|----------------------------||
A||-------------------------------------------------|----------------------------||
E||-------------------------------------------------|----------------------------||


Don't play anything during Verse 4


Verse 5
   3x
e||--------------------------------------|------------------------------------||
B||--------------------------------------|------------------------------------||
G||---9-9-9-9-9-9-9-9-9-9-9-9/11-9-9-9---|---9-9-9-9-9-9-9-9-9-9-9--7--9--9---||
D||--------------------------------------|------------------------------------||
A||--------------------------------------|------------------------------------||
E||--------------------------------------|------------------------------------||


Breakdown
   3x
e||-------------9-10~---|----------------------------------------------------||
B||---9-10~-------------|----------------------------------------------------||
G||---------------------|--12-12-12-12-12-12-12-12-11-11-11-11-11-11-11-11---||
D||---------------------|----------------------------------------------------||
A||---------------------|----------------------------------------------------||
E||---------------------|----------------------------------------------------||


Verse 6
   3x
e||-------------------------------------|-------------------------------------||
B||-------------------------------------|-------------------------------------||
G||-----------9-9-9-x-7-7-7-x-7-7-7-x---|-------------------7-7-7-7-7-7-7-7---||
D||---7-7-7-x-9-9-9-x-7-7-7-x-7-7-7-x---|---4-4-4-x-2-2-2-x-7-7-7-7-7-7-7-7---||
A||---7-7-7-x-7-7-7-x-5-5-5-x-5-5-5-x---|---4-4-4-x-2-2-2-x-5-5-5-5-5-5-5-5---||
E||---5-5-5-x---------------------------|---2-2-2-x-0-0-0-x-------------------||

e||------------------------||
B||------------------------||
G||------------------------||
D||---4-4-4-x-2-2-2-x-5~---||
A||---4-4-4-x-2-2-2-x-5~---||
E||---2-2-2-x-0-0-0-x-3~---||



Riff
   3x
e||-------------------------------------------------|----------------------------||
B||-------------------------------------------------|----------------------------||
G||---9-9-9-9-9-9-9-/-11--\--9--\--6--\--4-\-2--/---|---7-7-7-7-\-6-6-6-6-\-2~---||
D||-------------------------------------------------|----------------------------||
A||-------------------------------------------------|----------------------------||
E||-------------------------------------------------|----------------------------||




Guitar 3: electric guitar rhythm


(Starts at 1:55) Verse 6
   3x
   3x
e||-------------------------------------|-------------------------------------||
B||-------------------------------------|-------------------------------------||
G||-----------9-9-9-x-7-7-7-x-7-7-7-x---|-------------------7-7-7-7-7-7-7-7---||
D||---7-7-7-x-9-9-9-x-7-7-7-x-7-7-7-x---|---4-4-4-x-2-2-2-x-7-7-7-7-7-7-7-7---||
A||---7-7-7-x-7-7-7-x-5-5-5-x-5-5-5-x---|---4-4-4-x-2-2-2-x-5-5-5-5-5-5-5-5---||
E||---5-5-5-x---------------------------|---2-2-2-x-0-0-0-x-------------------||

e||------------------------||
B||------------------------||
G||------------------------||
D||---4-4-4-x-2-2-2-x-5~---||
A||---4-4-4-x-2-2-2-x-5~---||
E||---2-2-2-x-0-0-0-x-3~---||


Riff
   3x
e||-------------------------------------|------------------------||
B||-------------------------------------|------------------------||
G||-----------9-9-9-x-7-7-7-x-7-7-7-x---|------------------------||
D||---7-7-7-x-9-9-9-x-7-7-7-x-7-7-7-x---|---4-4-4-4-2-2-2-2-7~---||
A||---7-7-7-x-7-7-7-x-5-5-5-x-5-5-5-x---|---4-4-4-4-2-2-2-2-7~---||
E||---5-5-5-x---------------------------|---2-2-2-2-0-0-0-0-5~---||




Guitar 4: piano arranged for guitar


(Starts at 0:29)Verse 3
   3x
e||---5------7------5~------|---2------0------5~---||
B||---5------9------7~------|---2------0------7~---||
G||---6------9------7~------|---2------1------7~---||
D||---7------9------7~------|---4------2------7~---||
A||---7------7------5~------|---4------2------5~---||
E||---5---------------------|---2------0-----------||

Breakdown
   3x
e||---2------5---|---3-------2---||
B||---3------7---|---3-------3---||
G||---4------7---|---4-------2---||
D||---4------7---|---5-------4---||
A||---2------5---|---5-------5---||
E||--------------|---3-------2---||


Don't play anything during the riff


Verse 4
   3x
e||---5------7------5~------|---2------0------5~---||
B||---5------9------7~------|---2------0------7~---||
G||---6------9------7~------|---2------1------7~---||
D||---7------9------7~------|---4------2------7~---||
A||---7------7------5~------|---4------2------5~---||
E||---5---------------------|---2------0-----------||


Verse 5
   3x
e||---5------7------5~------|---2------0------5~---||
B||---5------9------7~------|---2------0------7~---||
G||---6------9------7~------|---2------1------7~---||
D||---7------9------7~------|---4------2------7~---||
A||---7------7------5~------|---4------2------5~---||
E||---5---------------------|---2------0-----------||


Breakdown
   3x
e||---2------5---|---3-3-3-3-3-3-3-3-3-2-2-2-2-2-2-2-2---||
B||---3------7---|---3-3-3-3-3-3-3-3-3-3-3-3-3-3-3-3-3---||
G||---4------7---|---4-4-4-4-4-4-4-4-4-2-2-2-2-2-2-2-2---||
D||---4------7---|---5-5-5-5-5-5-5-5-5-4-4-4-4-4-4-4-4---||
A||---2------5---|---5-5-5-5-5-5-5-5-5-5-5-5-5-5-5-5-5---||
E||--------------|---3-3-3-3-3-3-3-3-3-2-2-2-2-2-2-2-2---||



* Lyrics *

If I stand too close, I might fall in
But if I'm too far gone, I'll never win
If you believe in me, I might just want to spend some time with you again

I'm afraid I tend to disappear
Into an anxious state when you draw near
There is no reasoning, it's quite a silly thing, but it's the way I've been for years

So I will understand if you don't stay
They say I'm great at first, but then the magic fades
Into an awful hue of dismal views and pessimistic attitudes

All this distance
Years of sweet resistance
Swirling overhead like angry clouds of discontent

I have apologized a billion times
When I've gone off the wall like Busta Rhymes
And pulled a stupid stunt that left you thinking there was something wrong with me

You've thrown a few choice phrases out my way
And I've ignored them all as best I could
Except that tiny bit how I just can't commit, there is some truth in what you say

All this distance
Years of sweet resistance
Swirling overhead like angry clouds of discontent

If I stand too close, I might fall in
But if I'm too far gone, I'll never win
If you believe in me, I might just want to spend some time with you again
I'd spend some time with you again

If I stand too close, I might fall in
But if I'm too far gone, I'll never win
If you believe in me, I might just want to spend some time with you again

___________________________________
http://www.motioncitysoundtrack.com


Motion City Soundtrack
My Dinosaur Life
Pulp  Fiction

I figured out these chords while listening to the acoustic version of the song.  
Enjoy!  P.S. Please forgive any lyric hic-ups. 

Capo II

A               F#m
Smoke and mirrors and everything nice

         E                       D
I wasn't married to the weekend, I was banging on the back-end

A            F#m              E                               D
Kamakazi and Miami Vice, she shook a few of my favorite things

A                         F#m
Like cloak and dagger, So Seabury Quinn

           E                           D
I couldn't keep it all together, I was spooking in the end zone

A             F#m                     E                  D
Arigato, go-go gadget arms, she only took me for 10,000 yen

Am7                     C                                 G/Gm
It's like a bad dream, something from the back of a magazine

G/Gm                                               C
Black and white and cheaply put together like a slasher film

            Am                      G/Gm                                    C
I'm torn in opposite directions, the plot sucks but the killings are gorgeous

Am
  G/Gm                               C Am G/Gm
   Goddamn these killings are gorgeous

A                   F#m                   E              
Darkened Corners at every bend, I wasn't sucking down the poison

      D
I was working on the QT

A                F#m                           E                 D
Shaky shaky, all over the world, she tried to cartwheel at every turn

A                      F#m                        E
The creepy crawlies, a case of revenge, I had the martyrs that I bartered

        D
From the barons to the bandoleers

A            F#m                    E                        D
Karaoke, her feminine flaw, I had a feeling this was not the end

Repeat Chorus.



C       Am    Gm
Cave in, cave out

Am                   Gm
Nothing but nervous doubt

Am              C             Gm
Waiting for the big bang to get me

Am             C        G
Waiting for the big bang...

A                     F#
Wrapped in plastic, we all get the ends

           E                               D
She had to take it to the majors, couldn't keep it on the down low

A                 F#      
Silly rabbit, good grief, tambien 

        E                        D
Another stiff at the scene of the crime

Chorus repeats and that's it!  Any comments and ratings would be appreciated.

P.S. Second and third chorus add these lyrics

And like a nightmare covering the tracks that had brought you there


Artist: Motion City Soundtrack
Song: Skin and Bones
Album My Dinosaur Life

eb|---------------------|
Bb|---------------------|
Gb|--4------6-----9-----|
Db|--4 x16--6 x8--9 x8--|x4
Ab|--2------4-----7-----|
Eb|---------------------|

eb|---------------------|
Bb|---------------------|
Gb|--4------------------|
Db|--4 x8--6-----2------|x2
Ab|--2-----6 x8--2 x16--|
Eb|--------4-----0------|
  
eb|-------------------------------------------|          
Bb|-------------------------------------------|       
Gb|-4------6-----9-----4------6---------------|                   
Db|-4 x16--6 x8--9 x8--4 x16--6 x8--2---------|\     
Ab|-2------4-----7-----2------4-----2 x8------| \     
Eb|---------------------------------0---------|  \  /guitar 1    
    .      .     .     .      .     .             \/
eb|-------------------------------------------|   /\
Bb|--9-7-0-9--7-0 x3--------------------------|  /  \guitar 2
Gb|------------------4/6\4/6/8-4/6\4/6/8-6\4--| /
Db|-------------------------------------------|/
Ab|-------------------------------------------|
Eb|-------------------------------------------|

eb|-------------------------------------------|          
Bb|-------------------------------------------|       
Gb|-4------6-----9-----4------6---------------|                   
Db|-4 x16--6 x8--9 x8--4 x16--6 x8--2---------|    
Ab|-2------4-----7-----2------4-----2 x8------|      
Eb|---------------------------------0---------|
    .      .     .     .      .     .

eb|-------------------------------------------|          
Bb|-------------------------------------------|       
Gb|-4------6-----9-----4------6---------------|                   
Db|-4 x16--6 x8--9 x8--4 x16--6 x8--2~--------|    
Ab|-2------4-----7-----2------4-----2~--------|      
Eb|---------------------------------0~--------|
    .      .     .     .      .     

eb|---------------------|      
Bb|---------------------|    
Gb|--4------------------|      
Db|--4 x8--6-----2------|x4
Ab|--2-----6 x8--2 x16--|     
Eb|--------4-----0------|  

eb|----------------------|
Bb|----------------------|
Gb|--4~---6~-------------|
Db|--4~---6~---6~---7~---|x4--------------|-gutar1
Ab|--2~---4~---6~---7~---|                | starts                        
Eb|------------4~---5~---|                |  at                       
                                          |  1:44           
eb|-11h12p11-14~-11h12p11----11--------|  |                       
Bb|----------------------12~----121212-|  |                   
Gb|------------------------------------|  |-guitar2                         
Db|------------------------------------|x8/start at                          
Ab|------------------------------------|     2:13                          
Eb|------------------------------------|

eb|---------------------------|
Bb|---------------------------|
Gb|--4-----6------------------|
Db|--4 x16-6 x16-6-----7------|
Ab|--2-----4-----6 x16-7 x16--|                         
Eb|--------------4-----5------|

eb|---------------------|   ------------------|   
Bb|---------------------|   ------------------| 
Gb|--4------------------|   --4---------------|   
Db|--4 x8--6-----2------|x5 --4 x8--6-----2~--|
Ab|--2-----6 x8--2 x16--|   --2-----6 x8--2~--|  
Eb|--------4-----0------|   --------4-----0~--|

Welcome to the Hotel Hell. Check-in time in now, check-out time is never.



Добавлено: 23.07.2013
Другие материалы по этой песне:
  • Аккорды и текст

Страница создана 23.07.2013
http://primanota.ru/motion-city-soundtrack/my-dinosaur-life-chords.htm
Привет, Гость.
Предлагаем пройти революционный курс по гитаре.
Подарок от PrimaNota.Ru, забирай!