PrimaNota.ru - самый крупный в мире бесплатный архив песенных текстов, аккордов, табулатур и нот


Motion City Soundtrack - Hysteria - бас-таба, видео

Регистрация Запомнить меня
Войти через:  Facebook Google Twitter Vk Yandex Mail.ru

Motion City Soundtrack - Hysteria - бас-таба, видео

Печатать
Просмотров: 109
Motion City Soundtrack - Hysteria

Tabbed by: Ashy (XxThreeCheersxX)
E-mail: burdickash@gmail.com

Tuning: Half Step Down

Intro (come in at 0:05)
Gb|--------|
Db|--------|
Ab|--------|
Eb|-15\----|

Gb|-------------------------|
Db|-------2--2--3--3--------|
Ab|-0--0--------------3-----| x 2
Eb|----------------------3--|

Verse
Gb|-------------------------------------------------------------------|
Db|---------2-2-2-2-3-3-3-3-----------------2-2-2-2-3-3-3-3-----------|
Ab|-0-0-0-0-----------------3-3-----0-0-0-0-----------------3-3-3-3-3-| x 4
Eb|-----------------------------3-3-----------------------------------|

Pre-Chorus ("I will try not to lose control")
Gb|-------------------|
Db|-------------------|
Ab|-0x--0-0x----------|
Eb|-------------------|

Chorus
Gb|-----------------------------------------------------------|
Db|--------------------------------------------------------2--|
Ab|-----------------2h3-3-----------3--3--3-3-2-0--0-0--0-----| x 3
Eb|-1-1-1-1-1-1-1-1-------3--3-3-3----------------------------|

Gb|-----------------------------------------------------------------|
Db|-----------------------------------------------------------------|
Ab|-----------------2h3-3-----------3-3-3-3-3-3-3-3-3-3-3-3-3-3-3-3-|
Eb|-1-1-1-1-1-1-1-1-------3--3-3-3----------------------------------|

Interlude (no bass)

Verse (same as before)

Pre-Chorus II
Gb|---------------|
Db|---------------|
Ab|-0-0----0-0----|
Eb|---------------|

Chorus (same as before)

Bridge
Gb|---------------------------------------------------------------------|
Db|---------------------------------------------------------------------|
Ab|------------------5--5-5-5-5-5x----3--3-3-3-3-2x---------------------| x 2
Eb|-3--3-3-3-3-3x--------------------------------------0--0-0-0-0-0-0-0-|

Gb|-------------------------------------------------------------------|
Db|-------------------------------------------------------------------|
Ab|----------------5--5-5-5-5-5x----3--3-3-3-3-2x---------------------| x 2
Eb|-3--3-3-3-3-3-3-----------------------------------0--0-0-0-0-0-0-0-|

Interlude II
Gb|------------------------------------------------------------|
Db|--------2-2----3-3-------------------2-2----3-3-------------|
Ab|-0-0------------------3-3-----0-0------------------3-3-12\--|
Eb|--------------------------3-3-------------------------------|

Gb|-------------------------|
Db|-------2--2--3--3--------|
Ab|-0--0--------------3-----| 
Eb|----------------------3--|

Gb|-------------------------|
Db|-------2--2--3--3--7\----|
Ab|-0--0--------------------| 
Eb|-------------------------|

Final Chorus
Gb|-----------------------------------------------------------|
Db|--------------------------------------------------------2--|
Ab|-----------------2h3-3-----------3--3--3-3-2-0--0-0--0-----| x 3
Eb|-1-1-1-1-1-1-1-1-------3--3-3-3----------------------------|

Gb|-----------------------------------------------------------------|
Db|-----------------------------------------------------------------|
Ab|-----------------2h3-3-----------3-3-3-3-3-3-3-3-3-3-3-3-3-3-3-3-|
Eb|-1-1-1-1-1-1-1-1-------3--3-3-3----------------------------------|

Gb|-----------------------------------------------------------|
Db|--------------------------------------------------------2--|
Ab|-----------------2h3-3-----------3--3--3-3-2-0--0-0--0-----| 
Eb|-1-1-1-1-1-1-1-1-------3--3-3-3----------------------------|

Gb|-----------------------------------------------------------------|
Db|-----------------------------------------------------------------|
Ab|-----------------2h3-3-----------3-3-3-3-3-3-3-3-3-3-3-3-3-3-3-3-|
Eb|-1-1-1-1-1-1-1-1-------3--3-3-3----------------------------------|

Outro
Gb|-------------------------------------------------------2--|
Db|--------2-2----3-3-------------------2-2----3-3-----------|
Ab|-0-0------------------3-3-----0-0------------------3-3----|
Eb|--------------------------3-3-----------------------------|

Happy playing!

| /  slide up
| \  slide down
| h  hammer-on
| p  pull-off
| ~  vibrato
| +  harmonic
| x  Mute note
===============================================================================
Добавлено: 13.09.2015
Другие материалы по этой песне:

Страница создана 06.07.2012
http://primanota.ru/motion-city-soundtrack/hysteria-chords.htm
Привет, Гость.
Предлагаем пройти революционный курс по гитаре.
Подарок от PrimaNota.Ru, забирай!