PrimaNota.ru - самый крупный в мире бесплатный архив песенных текстов, аккордов, табулатур и нот


Motion City Soundtrack - Hangman - текст песни, таба, бас-таба, драм-таба, видео

Регистрация Запомнить меня
Войти через:  Facebook Google Twitter Vk Yandex Mail.ru

Motion City Soundtrack - Hangman - текст песни, таба, бас-таба, драм-таба, видео

Печатать
Просмотров: 79
Авторы музыки: Jesse Johnson, Joshua Cain, Tony Thaxton, Justin Pierre, Matthew Taylor
Авторы текста: Jesse Johnson, Joshua Cain, Tony Thaxton, Justin Pierre, Matthew Taylor
Hangman - Motion City Soundtrack

Drop D

Intro

Moog part for guitar  (Played by Mark Hoppus)
(0:00 - 0:13)
e|-----|
B|-----|
G|-----|
D|-8~--|
A|-----|
D|-----|

Guitar 1
(0:10 - 0:23)
e|---------------|
B|---------------|
G|---------------|
D|--8------------| x4
A|-------11-10---|
D|-----8-------8-|

Moog
(0:13 - 0:23)
e|-----|
B|-----|
G|-----|
D|-8b~-|   This note is in other parts of the song
A|-----|
D|-----|

Guitar 2
(0:17 - 0:20)
e|---------------|
B|---------------|
G|--8-----5------|
D|--8-x12-5-x3---|  x1  
A|--6-----3------|
D|---------------|

Guitar 2
(0:20 - 0:24)
e|---------------|
B|---------------|
G|--8------------|
D|--8-x12--xxx---|  x1
A|--6------xxx---|
D|---------xxx---|


Verse 1

Guitar 1
(0:23 - 0:37)
e|---------------|
B|---------------|
G|---------------|
D|--8------------| x4
A|-------11-10---|
D|-----8-------8-|

Guitar 2
(0:23 - 0:34)
e|---------------|
B|---------------|
G|--8-----5------|
D|--8-x12-5-x3---|  x3
A|--6-----3------|
D|---------------|

Guitar 2
(0:34 - 0:37)
e|---------------|
B|---------------|
G|--8------------|
D|--8-x12--xxx---|  x1
A|--6------xxx---|
D|---------xxx---|

Chorus 1

Guitar 1 + 2
(0:38 - 0:50)
e|-------------------------------------------------------------|
B|-------------------------------------------------------------|
G|---8---------------8--------------8--------------8-----------|
D|---8-x8-5----6-----8-x8-5----1----8-x8-5----6----8-x4-5---6~-|
A|---6----5-x4-6-x4--6----5-x4-1-x4-6----5-x4-6-x4-6----5x4-6~-|
D|--------5----6----------5----1---------5----6---------5---6~-|

Guitar 1
(0:50 - 0:52)
e|--------------------|
B|--------------------|
G|--------------------|
D|--------------------|  x1
A|--8-6-8-6-8-10-8-6~-|
D|--------------------|

Guitar 2
(0:53 - 0:56)
e|---------------|
B|---------------|
G|--8-----5------|
D|--8-x12-5-x3---|  x1
A|--6-----3------|
D|---------------|

Guitar 2
(0:57 - 1:00)
e|---------------|
B|---------------|
G|--8------------|
D|--8-x12--xxx---|  x1
A|--6------xxx---|
D|---------xxx---|

Verse 2 - Same as verse 1 - (1:00 - 1:14)

Guitar 1 + 2
(1:14 - 1:42)
e|-------------------------------------------------------------|
B|-------------------------------------------------------------|
G|-8---------------8--------------8--------------8-------------|
D|-8-x8-5----6-----8-x8-5----1----8-x8-5----6----8-x4-5---1----|x2
A|-6----5-x4-6-x4--6----5-x4-1-x4-6----5-x4-6-x4-6----5x4-1-x4-|
D|------5----6----------5----1---------5----6---------5---1----|


Bridge

Guitar 2
(1:42 - 2:02)
e|-----------------------------------------|
B|-----------------------------------------|
G|-----------------------------------------|
D|--6-----5-----3-----1-3--6-----5-----3~--|  x1
A|--6-x16-5-x16-3-x14-1-3--6-x16-5-x16-3~--|
D|--6-----5-----3-----1-3--6-----5-----3~--|

Chorus 3

Guitar 1 + 2
(2:03 - 2:20)
e|-----|
B|-----|
G|--8--|
D|--8--|  x1  Keep playing this note over and over until 2:20
A|--6--|
D|-----|

Guitar 1 + 2
(2:20 -2:31)
e|------------|
B|------------|
G|------------|
D|--3----1~---|  x2
A|--3-x4-1~---|
D|--3----1~---|

Guitar 1 + 2
(2:47 -2:48)
e|--------|
B|--------|
G|--------|
D|--xxxx--|  x1
A|--xxxx--|
D|--xxxx--|
Добавлено: 02.11.2013
Другие материалы по этой песне:
  • Аккорды и текст

Страница создана 26.06.2012
http://primanota.ru/motion-city-soundtrack/hangman-chords.htm
Привет, Гость.
Предлагаем пройти революционный курс по гитаре.
Подарок от PrimaNota.Ru, забирай!