PrimaNota.ru - самый крупный в мире бесплатный архив песенных текстов, аккордов, табулатур и нот


Motion City Soundtrack - Fell In Love With You - бас-таба, видео

Регистрация Запомнить меня
Войти через:  Facebook Google Twitter Vk Yandex Mail.ru

Motion City Soundtrack - Fell In Love With You - бас-таба, видео

Печатать
Просмотров: 88
-------------------------------------------------------------------------------
	   Fell In Love Without You - Motion City Soundtrack
-------------------------------------------------------------------------------

Tabbed By : valerie L
e-mail:  iloled@yahoo.com
Tuning: standard

Intro
G|--------------------------------|----------------------------------|
D|---111-------------111----------|----111-------------111-----------|
A|22--------------22--------------|-22--------------22---------------|
E|--------222-000--------2-2222222|--------222-000---------2-2222222-|

Verse
G|---------------------------------|
D|---111-------------111-----------|
A|22--------------22---------------|
E|-------222-000---------2-2222222-| x2

Chorus "Every aching wound..."
G|--------------------------------------------------------------------|
D|--------------------------------------------------------------------|
A|-----------------2222222222222222-----------------------------------|
E|0000000000000000------------------44444444-55555555-0000000000000000| x2

Verse x2
Chorus x2

Bridge
G|--------------------------------------------------------------------|
D|--------------------------------------------------------------------|
A|-----------------2222222222222222-----------------------------------|
E|0000000000000000------------------44444444-55555555-0000000000000000| 

G|--------------------------------------------------------------------|
D|--------------------------------------------------------------------|
A|-----------------2222222222222222-----------------------------------|
E|0000000000000000------------------44444444-55555555-00000000-5555555| 

Verse 3
G|----------------------------------|
D|---333-------------333------------|
A|44--------------44----------------|
E|-------444-222---------4444444444-| x2

Outro Chorus
G|---------------------------------------------------------------------|
D|---------------------------------------------------------------------|
A|-----------------4444444444444444-11111111-22222222------------------|
E|2222222222222222------------------------------------2222222222222222-|

"only time will tell..."
G|----------------------------------------------------------------------|
D|----------------------------------------------------------------------|
A|-----------------2222222222222222-------------------2222222222222222--|
E|0000000000000000------------------44444444-55555555-------------------|

G|------------------|
D|------------------|
A|------------------|
E|-4~---5~----0~----|
Добавлено: 16.11.2013
Другие материалы по этой песне:
  • Аккорды и текст

Страница создана 16.11.2013
http://primanota.ru/motion-city-soundtrack/fell-in-love-with-you-chords.htm
Привет, Гость.
Предлагаем пройти революционный курс по гитаре.
Подарок от PrimaNota.Ru, забирай!