PrimaNota.ru - самый крупный в мире бесплатный архив песенных текстов, аккордов, табулатур и нот


Motion City Soundtrack - Favorite Accident - таба, видео

Регистрация Запомнить меня
Войти через:  Facebook Google Twitter Vk Yandex Mail.ru

Motion City Soundtrack - Favorite Accident - таба, видео

Печатать
Просмотров: 62
this is a pretty easy song once u git the parts.hope u can learn something from it


piano part 
|----------------------|
|--9--------------6----|
|---10-8-10-8-6-8--6-8-|
|-8-----------------6--|
|----------------------|
|----------------------|

guitar comes in after the drums 
|--------------------------------------------------|
|--------------------------------------------------|
|-10-8-10-8-10-8--10-8-10-8-10-11--10-8-10-8-10-8--|
|--------------------------------------------------|
|--------------------------------------------------|
|--------------------------------------------------|


|----------------------------------------|
|----------------------------------------|
|----------------------------------------|x3
|---------------6--6--6-6-6--------------|
|--8--8--8-8-8--4--4--4-4-4--4--4--4-4-4-|
|--6--6--6-6-6---------------2--2--2-2-2-|


|-----------------------------------|
|------------------------------6--9-|
|-------------------------------8---|
|---------------6--6--6-6-6---------|
|--8--8--8-8-8--4--4--4-4-4---------|
|--6--6--6-6-6----------------------|


|------------------------------------------|
|-----------------------------------9------|
|------10-------10------10---8-10-8---8-10-|x3
|--8-8-----6-6-----------------------------|
|-------------------8-8--------------------|
|------------------------------------------|


|-----------------------------------|
|-----------------------------------|
|------10-------10------10----------|
|--8-8-----6-6---------------4~~~---|
|-------------------8-8------6~~~---|
|-----------------------------------|

not sure about this part
|------------------------|   |---------------------------|
|------------------------|   |---------------------------|
|--6-6-6-6-----6-6-6-6---|x2 |--6-6-6-6-6-6-6-6-6-6-6-6--|
|--6-6-6-6-----6-6-6-6---|   |--6-6-6-6-6-6-6-6-6-6-6-6--|
|--4-4-4-4-----4-4-4-4---|   |--4-4-4-4-4-4-4-4-4-4-4-4--|
|------------------------|   |---------------------------|

Chorus
|----------------------------|------------|                 |----------|
|----------------------------|------------|                 |----------|
|-------------------6--6-6-6-|10-10-------|x6               |----------|
|-3--3-3-3-4--4-4-4-6--6-6-6-|10-10-10-10-|every other one  |-8-8-10-10|
|-3--3-3-3-4--4-4-4-4--4-4-4-|8--8--10-10-|change 10        |-6-6-8---8|
|-1--1-1-1-2--2-2-2----------|------8--8--|        8  to    |----------|
on the last time through let 6~~~
                             6~~~
                             4~~~

then
|----------------------------------------|riff 1
|----------------------------------------|
|----------------------------------------|x2
|---------------6--6--6-6-6--------------|
|--8--8--8-8-8--4--4--4-4-4--4--4--4-4-4-|
|--6--6--6-6-6---------------2--2--2-2-2-|

|-----------------------------------------------|riff 2
|-----------------------------------------------|
|-----------------------------------------------|
|---------------6--6--6-6-6---------------------|
|--8--8--8-8-8--4--4--4-4-4--4-4-4--4-4-4--4-4-4|
|--6--6--6-6-6---------------2-2-2--2-2-2--2-2-2|
                          pm . .    . .    . .

riff 1 x2
Chorus x12
riff 1
riff 2
riff 1 x2
riff 1 
riff 2 
riff 2 then goes in to 
    multiple times 
|--------------------------------------------------|
|--------------------------------------------------|
|-10-8-10-8-10-8--10-8-10-8-10-11--10-8-10-8-10-8--|
|--------------------------------------------------|
|--------------------------------------------------|
|--------------------------------------------------|


then finishes something like 
|---------------|
|---------------|
|---------6~~~~-|
|---------6~~~~-|
|-4-4-4-4-4~~~~-|
|-2-2-2-2-------|
Добавлено: 04.08.2013
Другие материалы по этой песне:
  • Аккорды и текст

Страница создана 04.08.2013
http://primanota.ru/motion-city-soundtrack/favorite-accident-chords.htm
Привет, Гость.
Предлагаем пройти революционный курс по гитаре.
Подарок от PrimaNota.Ru, забирай!