PrimaNota.ru - самый крупный в мире бесплатный архив песенных текстов, аккордов, табулатур и нот


Motion City Soundtrack - Can't Finish What You Started - текст песни, таба, видео

Регистрация Запомнить меня
Войти через:  Facebook Google Twitter Vk Yandex Mail.ru

Motion City Soundtrack - Can't Finish What You Started - текст песни, таба, видео

Печатать
Просмотров: 104
Авторы музыки: Jesse Johnson, Joshua Cain, Tony Thaxton, Justin Pierre, Matthew Taylor
Авторы текста: Jesse Johnson, Joshua Cain, Tony Thaxton, Justin Pierre, Matthew Taylor
Standard Tuning

Intro X4
e --------------------------------------------------------------|
B ----------------------5-5-------5-5---------------------------|
G --7-7--x-x--7-7--x-x--6-6--x-x--6-6--x-x--4-4--x-x--4-4--x-x--|
D --x-x--x-x--x-x--x-x--x-x--x-x--x-x--x-x--x-x--x-x--x-x--x-x--|
A --5-5--x-x--5-5--x-x--5-5--x-x--5-5--x-x--5-5--x-x--5-5--x-x--|
E --------------------------------------------------------------|

e --------------------------------------------------------------|
B --------------------------------------------------------------|
G --4-4--x-x--4-4--x-x------------------------------------------|
D --x-x--x-x--x-x--x-x------------------------------------------|
A --5-5--x-x--5-5--x-x------------------------------------------|
E --------------------------------------------------------------|

Keyboard/Moog for Guitar Intro X2

e --------------------------------------------------------------|
B ------7---8-7----------8-7---7------7---8-7----------8-7---7--|
G ----7---7-----7-9--7-9-----7------7---7-----7-9--7-9-----7----|
D --7-----------------------------7-----------------------------|
A --------------------------------------------------------------|
E --------------------------------------------------------------|

Verse X8 (Same as intro)

Chorus

e --------------------------------------------------------------|
B --------------------------------------------------------------|
G ----------7--------------------------7-7-4--------------------|
D --5---7---7---7----X2-then---5---7---7-7-4---5---7------------|
A --5---7---5---7--------------5---7---5-4-2---5---7------------|
E --3---5-------5--------------3---5-----------3---5------------|


Bridge (something something close to this at least)

Clean  strumming pattern not included   softly palm muted
e --------------------------------------------------------------|
B --------------------------------------------------------------|
G --------------------------------------------------------------|
D --7----11---4----2--------------------------------------------|
A --5----9----2----3--------------------------------------------|
E --------------------------------------------------------------|

End of last chorus (ring out)

e --------------------------------------------------------------|
B -------2------------------------------------------------------|
G --0----2------------------------------------------------------|
D --0----2------------------------------------------------------|
A --2----0------------------------------------------------------|
E --3-----------------------------------------------------------|

Outro  first just intro then

e --------------------------------------------------------------|
B --------------------------------------------------------------|
G -------------6/7--------------7~------------------------------|
D --5---9---7--x/x-----end on---7~------------------------------|
A --5---9---7--4/5--------------5~------------------------------|
E --3---7---5---------------------------------------------------|

something like that
Добавлено: 12.09.2013
Другие материалы по этой песне:
  • Аккорды и текст

Страница создана 20.04.2012
http://primanota.ru/motion-city-soundtrack/cant-finish-what-you-started-chords.htm
Привет, Гость.
Предлагаем пройти революционный курс по гитаре.
Подарок от PrimaNota.Ru, забирай!