PrimaNota.ru - самый крупный в мире бесплатный архив песенных текстов, аккордов, табулатур и нот


Motion City Soundtrack - Bomb Bops - таба, видео

Регистрация Запомнить меня
Войти через:  Facebook Google Twitter Vk Yandex Mail.ru

Motion City Soundtrack - Bomb Bops - таба, видео

Печатать
Просмотров: 82
This is only 1 guitar.
It's easier than other, so I bet Justin's playing it.
Have fun!



pm , , , ,
e|---------|
B|---------|
G|---------|
D|-8-8-8-8-|
A|-8-8-8-8-|
E|-6-6-6-6-|

e|-------------------|
B|-------------------|
G|-------------------|
D|-8-32x-6-16x-8-12x-|
A|-8-----6-----8-----|
E|-6-----4-----6-----|

pm                                    ,,,,,,,      ,,,,,,,,,,,,
e|--------------------------------------------------------------|
B|--------------------------------------------------------------|
G|-8-8-8--7--3-5--8-8-8--7--3-5~--------------------------------|
D|--------------------------------8/3-3333333-3^/0-000000011000-|
A|--------------------------------------------------------------|
E|--------------------------------------------------------------|

pm , , , ,
e|---------|
B|---------|
G|---------|
D|-8-8-8-8-|
A|-8-8-8-8-|
E|-6-6-6-6-|

e|-------------------|
B|-------------------|
G|-------------------|
D|-8-32x-6-16x-8-12x-|
A|-8-----6-----8-----|
E|-6-----4-----6-----|

pm , , , ,
e|---------|
B|---------|
G|---------|
D|-8-8-8-8-|
A|-8-8-8-8-|
E|-6-6-6-6-|

e|-------------------------------------------------------------|
B|-------------------------------------------------------------|
G|--------------------------------8-8--8-8-8--8-8-8--8-810--2x-|
D|-8-8--8-8-8--8-8-8--8-8-10--2x--6-6--6-6-6--6-6-6--6-6-8-----|
A|-6-6--6-6-6--6-6-6--6-6-8------------------------------------|
E|-------------------------------------------------------------|

e|-10-10-10-10-10-10-10----10-10-10----10-10-10----10-10-10----|
B|----------------------11----------11----------------------11-|
G|-------------------------------------------------------------|
D|-------------------------------------------------------------|
A|-------------------------------------------------------------|
E|-------------------------------------------------------------|

e|-10-10-10----|
B|----------11-|
G|-------------|
D|-------------|   10x
A|-------------|
E|-------------|

pm , , , ,
e|---------|
B|---------|
G|---------|
D|-8-8-8-8-|
A|-8-8-8-8-|
E|-6-6-6-6-|

e|-------------------|
B|-------------------|
G|-------------------|
D|-8-32x-6-16x-8-12x-|
A|-8-----6-----8-----|
E|-6-----4-----6-----|

pm , , , ,
e|---------|
B|---------|
G|---------|
D|-8-8-8-8-|
A|-8-8-8-8-|
E|-6-6-6-6-|

e|-------------------|
B|-------------------|
G|-------------------|
D|-8-32x-6-16x-8-12x-|
A|-8-----6-----8-----|
E|-6-----4-----6-----|

pm , , , ,
e|---------|
B|---------|
G|---------|
D|-8-8-8-8-|
A|-8-8-8-8-|
E|-6-6-6-6-|

e|-------------------------------------------------------------|
B|-------------------------------------------------------------|
G|--------------------------------8-8--8-8-8--8-8-8--8-810--2x-|
D|-8-8--8-8-8--8-8-8--8-8-10--2x--6-6--6-6-6--6-6-6--6-6-8-----|
A|-6-6--6-6-6--6-6-6--6-6-8------------------------------------|
E|-------------------------------------------------------------|

pm                         ,,,,,,,      ,,,,,,,,,,,,
e|---------------------------------------------------|
B|---------------------------------------------------|
G|-8--7--3/5--7--3/5~--------------------------------|
D|---------------------8/3-3333333-3^/0-000000011000-|
A|---------------------------------------------------|
E|---------------------------------------------------|

pm , , , ,
e|---------|
B|---------|
G|---------|
D|-8-8-8-8-|
A|-8-8-8-8-|
E|-6-6-6-6-|

e|--------------------------------------------------------------|
B|--------------------------------------------------------------|
G|--------------------------------8-8--8-8-8--8-8-8--8-8-10--2x-|
D|-8-8--8-8-8--8-8-8--8-8-10--2x--6-6--6-6-6--6-6-6--6-6-8------|
A|-6-6--6-6-6--6-6-6--6-6-8-------------------------------------|
E|--------------------------------------------------------------|

e|-10-10-10----10-10-10----10-10-10----10-10-10----10-10-10-|
B|----------11----------11----------11----------11----------|
G|----------------------------------------------------------|
D|----------------------------------------------------------|
A|----------------------------------------------------------|
E|----------------------------------------------------------|

e|-10-10-10----|
B|----------11-|
G|-------------|
D|-------------|   10x
A|-------------|
E|-------------|

pm , , , , , , , ,
e|-----------------|
B|-----------------|
G|-----------------|
D|-8-8-8-8-8-8-8-8-|
A|-8-8-8-8-8-8-8-8-|
E|-6-6-6-6-6-6-6-6-|
Добавлено: 25.08.2013
Другие материалы по этой песне:
  • Аккорды и текст

Страница создана 25.08.2013
http://primanota.ru/motion-city-soundtrack/bomb-bops-chords.htm
Привет, Гость.
Предлагаем пройти революционный курс по гитаре.
Подарок от PrimaNota.Ru, забирай!