PrimaNota.ru - самый крупный в мире бесплатный архив песенных текстов, аккордов, табулатур и нот


Motion City Soundtrack - Atractive Today - бас-таба, видео

Регистрация Запомнить меня
Войти через:  Facebook Google Twitter Vk Yandex Mail.ru

Motion City Soundtrack - Atractive Today - бас-таба, видео

Печатать
Просмотров: 78
ATTRACTIVE TODAY

tuning:standard

00:14intro-verse
|------------------|x2
|------------------|
|---------77777777-|
|-44--66-----------|

|--------------------------|
|--------------------------|
|---------7777777777777777-|
|-44--66-------------------|

|---------------------------------|
|---------------------------------|
|-2-22-22-4-44-44-----------------|
|-----------------0-00-00-0-00-00-|

|---------------------------------|
|---------------------------------|
|-2-22-22-4-44-44-7-77-77-7-77-77-|
|---------------------------------|

verse
|----------------------------------|x2
|----------------------------------|
|-22222222444444447777777777777777-|
|----------------------------------|

|------------------|x2
|------------------|
|---------77777777-|
|-44--66-----------|

|--------------------------|
|--------------------------|
|---------7777777777777777-|
|-44--66-------------------|

|---------------------------------|
|---------------------------------|
|-2-22-22-4-44-44-----------------|
|-----------------0-00-00-0-00-00-|

|---------------------------------|
|---------------------------------|
|-2-22-22-4-44-44-7-77-77-7-77-77-|
|---------------------------------|

|------------------|x2
|------------------|
|---------77777777-|
|-44--66-----------|

|----------|
|----------|
|----------|
|-44--66---|

|------|xa lot get very fast
|------|
|---44-|
|-22---|

|-------|random
|-8\/\/-|
|-------|
|-------|

|------------------|x2
|------------------|
|---------77777777-|
|-44--66-----------|

|-------------------------------|
|-------------------------------|
|-------------------------------|
|-44-66-0022440022440224400224\-|
Добавлено: 15.08.2013
Другие материалы по этой песне:
  • Аккорды и текст

Страница создана 15.08.2013
http://primanota.ru/motion-city-soundtrack/atractive-today-chords.htm
Привет, Гость.
Предлагаем пройти революционный курс по гитаре.
Подарок от PrimaNota.Ru, забирай!