PrimaNota.ru - самый крупный в мире бесплатный архив песенных текстов, аккордов, табулатур и нот


Motion City Soundtrack - At Exclamation Sharp Question At Exclamation - таба, видео

Регистрация Запомнить меня
Войти через:  Facebook Google Twitter Vk Yandex Mail.ru

Motion City Soundtrack - At Exclamation Sharp Question At Exclamation - таба, видео

Печатать
Просмотров: 74
------------------------------------------------------------------------------- 
                    @!#?@! - Motion City Soundtrack
------------------------------------------------------------------------------- 
Tabbed by:TheTroy
Tuning:Standard

Intro
e|---------------------------------------------------------------------------| 
B|---------------------------------------------------------------------------| 
G|-11-------------------6-6-66-66-------------11------------------4-4-4\3----| 
D|-11-11--8-8-4--4-4-4--6-6-66-66-3-3-33-333--11-11--8-8-4--4-4-4-4-4-4\3-6--| 
A|-9--11--8-8-4--4-4-4--4-4-44-44-3-3-33-333--9--11--8-8-4--4-4-4-2-2-2\1-6--| 
E|----9---6-6-2--2-2-2------------1-1-11-111-----9---6-6-2--2-2-2---------4--| 

e|---------------------------------------------------------------------------| 
B|---------------------------------------------------------------------------| 
G|---------------------------------------------------------------------------| 
D|-4-4-4-6-------------------------------------------------------------------| 
A|-4-4-4-6-------------------------------------------------------------------| 
E|-2-2-2-4-------------------------------------------------------------------| 

Lead:
e|---------------------------------------------------------------------------| 
B|-9-------------9-----------9-----------------------------------------------| 
G|---10--8-10/11---10~~--------10--8\6/11-10-8-6~----------------------------| 
D|---------------------------------------------------------------------------| 
A|---------------------------------------------------------------------------| 
E|---------------------------------------------------------------------------| 

Verse
e|---------------------------------------------------------------------------| 
B|-7-7-7-7-11-11-11-11-6-6-6-6-6-6-6-7---------------------------------------| 
G|-8-8-8-8-11-11-11-11-6-6-6-6-6-6-6-6---------------------------------------| 
D|-8-8-8-8-11-11-11-11-6-6-6-6-6-6-6-6---------------------------------------| 
A|-6-6-6-6-9--9--9--9--4-4-4-4-4-4-4-4---------------------------------------| 
E|---------------------------------------------------------------------------| 

Chorus
e|---------------------------------------------------------------------------| 
B|---------------------------------------------------------------------------| 
G|-11-------------------6-6-66-66-------------11------------------4-4-4\3----| 
D|-11-11--8-8-4--4-4-4--6-6-66-66-3-3-33-333--11-11--8-8-4--4-4-4-4-4-4\3-6--| 
A|-9--11--8-8-4--4-4-4--4-4-44-44-3-3-33-333--9--11--8-8-4--4-4-4-2-2-2\1-6--| 
E|----9---6-6-2--2-2-2------------1-1-11-111-----9---6-6-2--2-2-2---------4--| 

e|---------------------------------------------------------------------------| 
B|---------------------------------------------------------------------------| 
G|---------------------------------------------------------------------------| 
D|-4-4-4-6-------------------------------------------------------------------| 
A|-4-4-4-6-------------------------------------------------------------------| 
E|-2-2-2-4-------------------------------------------------------------------| 

Verse
e|---------------------------------------------------------------------------| 
B|-7-7-7-7-11-11-11-11-6-6-6-6-6-6-6-7---------------------------------------| 
G|-8-8-8-8-11-11-11-11-6-6-6-6-6-6-6-6---------------------------------------| 
D|-8-8-8-8-11-11-11-11-6-6-6-6-6-6-6-6---------------------------------------| 
A|-6-6-6-6-9--9--9--9--4-4-4-4-4-4-4-4---------------------------------------| 
E|---------------------------------------------------------------------------|

Chorus
e|---------------------------------------------------------------------------| 
B|---------------------------------------------------------------------------| 
G|-11-------------------6-6-66-66-------------11------------------4-4-4\3----| 
D|-11-11--8-8-4--4-4-4--6-6-66-66-3-3-33-333--11-11--8-8-4--4-4-4-4-4-4\3-6--| 
A|-9--11--8-8-4--4-4-4--4-4-44-44-3-3-33-333--9--11--8-8-4--4-4-4-2-2-2\1-6--| 
E|----9---6-6-2--2-2-2------------1-1-11-111-----9---6-6-2--2-2-2---------4--| 

e|---------------------------------------------------------------------------| 
B|---------------------------------------------------------------------------| 
G|---------------------------------------------------------------------------| 
D|-4-4-4-6-------------------------------------------------------------------| 
A|-4-4-4-6-------------------------------------------------------------------| 
E|-2-2-2-4-------------------------------------------------------------------| 

Bridge
e|---------------------------------------------------------------------------| 
B|---------------------------------------------------------------------------| 
G|---------6-6-6-6-------------------------6-6-6-6---------------------------| 
D|-8-8-8-8-6-6-6-6-4-4-4-4-6-6-7-7-8-8-8-8-6-6-6-6-4-4-4-4-3-3-7-7-----------|
A|-8-8-8-8-4-4-4-4-4-4-4-4-6-6-7-7-8-8-8-8-4-4-4-4-4-4-4-4-3-3-7-7-----------| 
E|-6-6-6-6---------2-2-2-2-4-4-5-5-6-6-6-6---------2-2-2-2-1-1-5-5-----------| 

Chorus/Ending
e|---------------------------------------------------------------------------| 
B|---------------------------------------------------------------------------| 
G|-11-------------------6-6-66-66-------------11------------------4-4-4\3----| 
D|-11-11--8-8-4--4-4-4--6-6-66-66-3-3-33-333--11-11--8-8-4--4-4-4-4-4-4\3-6--| 
A|-9--11--8-8-4--4-4-4--4-4-44-44-3-3-33-333--9--11--8-8-4--4-4-4-2-2-2\1-6--| 
E|----9---6-6-2--2-2-2------------1-1-11-111-----9---6-6-2--2-2-2---------4--| 

e|---------------------------------------------------------------------------| 
B|---------------------------------------------------------------------------| 
G|---------------------------------------------------------------------------| 
D|-4-4-4-6-------------------------------------------------------------------| 
A|-4-4-4-6-------------------------------------------------------------------| 
E|-2-2-2-4-------------------------------------------------------------------|

FIN! :)
Добавлено: 11.10.2013
Другие материалы по этой песне:
  • Аккорды и текст

Страница создана 11.10.2013
http://primanota.ru/motion-city-soundtrack/at-exclamation-sharp-question-at-exclamation-chords.htm
Привет, Гость.
Предлагаем пройти революционный курс по гитаре.
Подарок от PrimaNota.Ru, забирай!