PrimaNota.ru - самый крупный в мире бесплатный архив песенных текстов, аккордов, табулатур и нот


Mothers Finest - Truthll Set You Free - бас-таба, видео

Регистрация Запомнить меня
Войти через:  Facebook Google Twitter Vk Yandex Mail.ru

Mothers Finest - Truthll Set You Free - бас-таба, видео

Печатать
Просмотров: 41
-------------------------------------------------------------------------------
               Truth'll Set You Free - Mother's Finest
-------------------------------------------------------------------------------
Tabbed by: Benjamin Woodburn
E-mail: woodburn.benjamin@gmail.com

Tuning: Standard (EADG)

All of the notes are lined up exactly with the counts I wrote in,
so if any of the timing is confusing, just look for the counts. 
That should be all of it, if you have anything to say, email me.
Enjoy!

Intro:

    4  +  
G|-------|
D|-------|
A|--1-h3-|
E|-------|

The following is what is played for most of the song, the order 
in which it is played is something you'll have to listen for.

   | | |   | |   | |     | |   |
   1 e + a 2 e + a 3 e + a 4 e + a 
G|---------------------------------|---------------------------------|
D|---------------------------------|---------------------------------|
A|-------------------------1--h3---|-------------------------1--h3---|
E|-x-x-3---x-3---x-3-----x---------|-x-x-3---x-3---x-3-----x---------|
 
G|---------------------------------|---------------------------------|
D|---------------------------------|-----------------5-3-------------|
A|-------------------------1--h3---|---------------------5-3-1--h3---|
E|-x-x-3---x-3---x-3-----x---------|-x-x-3---x-3---x-----------------|


G|---------------------------------|---------------------------------|
D|---------------------------------|---------------------------------|
A|-------------------------1--h3---|-------------------------1--h3---|
E|-x-x-3---x-3---x-3-----x---------|-x-x-3---x-3---x-3-----x---------|

G|---------------------------------|---------------------------------|
D|---------------------------------|---------------------------------|
A|-------------------------1--h3---|-------------------------1--h3---|
E|-x-x-3---x-3---x-3-----x---------|-x-x-3---x-3---x-3-----x---------|

1:31
G|---------------------------------|---------------------------------|
D|---------------------------------|---------------------------------|
A|-------------------------1--h3---|-------------------------1--h3---|
E|-x-x-3---x-3---x-3-----x---------|-x-x-3---x-3---x-3-----x---------|

G|---------------------------------|---------------------------------|
D|---------------------------------|---------------------------------|
A|-------------------------1--h3---|-------------------------1--h3---|
E|-x-x-3---x-3---x-3-----x---------|-x-x-3---x-3---x-3-----x---------|

Rest
Bridge:

G|---------------------------------|---------------------------------|
D|---------------------------------|---------------------------------|
A|---------------------------------|-------------------------1--h3---|
E|-----------------------------3---|-x-x-3---x-3---x-3-----x---------|

G|---------------------------------|
D|---------------------------------|
A|-------------------------1--h3---|
E|-x-x-3---x-3---x-3-----x---------|


G|---------------------------------|---------------------------------|
D|-3h5-------------------------3h5-|-5-3---3-------------------------|
A|-----3h5-1h3---------1h3-3h5-----|-----5---5-3-5-3-1-3-1---1-------|
E|-------------1h3-1h3-------------|-----------------------3---3-1-3-|

   1 e + a 2 e + a 3 e + a 4 e + a   1 e + a 2 e + a 3 e + a 4 e + a 
G|---------------------------------|---------------------------------|
D|---------------------------------|---------------------------------|
A|---------------------------------|---------------------------------|
E|-1---////13------1-----3-----1---|(1)--////13------1-----3-----1---|

G|---------------------------------|---------------------------------|
D|---------------------------------|-----------------3-----5---------|
A|---------------------------------|---------------------------------|
E|(1)--////13------1-----3-----1---|(1)--////13------------------1---|


G|---------------------------------|---------------------------------|
D|---------------------------------|-----------------3-----5---------|
A|---------------------------------|---------------------------------|
E|(1)--////13------1-----3-----1---|(1)--////13------------------1---|

G|---------------------------------|---------------------------------|
D|---------------------------------|-----------------3-----5---------|
A|---------------------------------|---------------------------------|
E|(1)--////13------1-----3-----1---|(1)--////13------------------1---|

   1 e + a 2 e + a 3 e + a 4 e + a 
G|---------------------------------|---------------------------------|
D|---------------------------------|---------------------------------|
A|-1-----3-------------------------|-1-----3-------------------------|
E|---------------------------------|---------------------------------|

G|---------------------------------|---------------------------------|
D|---------------------------------|---------------------------------|
A|-1-----3-------------------------|-3-------------------------------|
E|---------------------------------|---------------------------------|

   1 e + a 2 e + a 3 e + a 4 e + a 
G|---------------------------------|
D|---------------------------------|
A|-------------3-------------------|
E|-3-----------------------1-------|

Outro:

Then it goes back to the stuff from the beginning, but when it begins
to fade out, he plays this:

G|---------------------------------|---------------------------------|
D|---------------------------------|---------------------------------|
A|-------------------------1--h3---|-----------------3-------1-------|
E|-x-x-3---x-3---x-3-----x---------|-x-x-3---x-3---x-----------------|

And there you have it; now you can do me a favor and rate it!

| /  slide up
| \  slide down
| h  hammer-on
| p  pull-off
| ~  vibrato
| +  harmonic
| x  Mute note
===============================================================================
Добавлено: 31.07.2015
Другие материалы по этой песне:
  • Аккорды и текст

Страница создана 31.07.2015
http://primanota.ru/mothers-finest/truthll-set-you-free-chords.htm
Привет, Гость.
Предлагаем пройти революционный курс по гитаре.
Подарок от PrimaNota.Ru, забирай!