PrimaNota.ru - самый крупный в мире бесплатный архив песенных текстов, аккордов, табулатур и нот


Mothers Cake - Runaway - бас-таба, видео

Регистрация Запомнить меня
Войти через:  Facebook Google Twitter Vk Yandex Mail.ru

Mothers Cake - Runaway - бас-таба, видео

Печатать
Просмотров: 36
Here's a video of me playing this lovely tune. 

https://www.youtube.com/watch?t=214&v=Gy2tiWe3wBE

Intro
|-------------------------------------------------------------------|
|-----------------------5---5---5-------5---5---5-------5----5---5--|
|-------------------------------------------------------------------|
|--5\\--5--5\\--//-\\-5---5---5------5----5---5------5----5----5----|

|-----------------------------------------------------------------|
|-----------------------------------------------------------------|
|-------5------9--------5------6--------5---------------5---------|
|-5-7-8---8-7-----5-7-8---8-7-----5-7-8---8-7--4--5-7-8---8-7--4--|

main riff
|---------------------------------|    |-------------|
|---------------------7-----------|    |-------------|
|-------5-------------------------| x4 |-------5-----|
|-5-7-8---8-7-5-5-5-5---5-5-5-5-5-|    |-5-7-8---8-7-|

Riff A
|--------------------------------------- ----------------------------------------------|
|--------------------------------------------------------------------------------------|
|-------5---------------5-----------------5---------------5---------------5------------|
|-5-7-8---8-7-5---5-7-8---8-7-5-----5-7-8---8-7-5---5-7-8---8-7-5---5-7-8---8-7-5--(8)-|

|--------------------------------------------------------------------------------------------------------|
|--------------------------------------------------------------------------------------------------------|
|-------5---------------5---------------5----------------5---------------5--------------5----------------|
|-5-7-8---8-7-5---5-7-8---8-7-5---5-7-8---8-7-5--x-5-7-8---8-7-5---5-7-8---8-7-5--5-7-8----8-7-5---9-(8)-|

|--------------------------------------------------------------------------------------------------|
|--------------------------------------------------------------------------------------------------|
|-------5---------------5---------------5---------------5---------------5---------------5----------|
|-5-7-8---8-7-5---5-7-8---8-7-5---5-7-8---8-7-5---5-7-8---8-7-5---5-7-8---8-7-5---5-7-8---8-5--(8)-|

|---------------------------------------------------------------------------------------------|
|---------------------------------------------------------------------------------------------|
|-------5---------------5---------------5---------------5---------------5---------------5-----|
|-5-7-8---8-7-5---5-7-8---8-7-5---5-7-8---8-7-5---5-7-8---8-7-5---5-7-8---8-7-5---5-7-8---8-5-|

Riff B
|------------------------------------------------------------------------------------|
|------------------------------------------------------------------------------------|
|-------5---------------------5--------------------5---------------12-12-12----------|
|-5-7-8---8-7--5-5-8-5--5-7-8---8-7-5-5-8-5--5-7-8---8-7-5-5-8-5------------11-11-11-|

slap bass
|---------7-7-----------------------------|
|---7-7-------5h7-------7-7---7-7-----5h7-|
|-----------------5h7-------------5h7-----| Repeat   
|-5-----5-------------5-----5-------------|   
  T P P T P P P   T   T P P T P P T   P 

Riff C
|------------------------------------------------------|
|--------7------------7--------------7-------------7---|
|------------------------------------------------------|
|-5-5--5---5---5-5--5---5--4--5-5--5---5----5-5--5---5-|

Riff D
|-----------------------------------|    |-----------|
|-----------------------------------|    |-----------|
|-----------------------------------| x4 |-----------|
|-4--4-4-4-4--4-3-1--1-1-1-1--1-3-4-|    |-1-1-1-1-1-|

Main Riff
|---------------------------------|    |---------------------------------|
|---------------------7-----------|    |---------------------------------|
|-------5-------------------------| x3 |-------5-------------5-----------|
|-5-7-8---8-7-5-5-5-5---5-5-5-5-5-|    |-5-7-8---8-7---5-7-8---8-7-6--

slap bass
|---------7-7-----------------------------|
|---7-7-------5h7-------7-7---7-7-----5h7-|
|-----------------5h7-------------5h7-----|  
|-5-----5-------------5-----5-------------|
  T P P T P P P   T   T P P T P P T   P

Riff C
|------------------------------------------------------|
|--------7------------7--------------7-------------7---|
|------------------------------------------------------|
|-5-5--5---5---5-5--5---5--4--5-5--5---5----5-5--5---5-|

Riff D
|-----------------------------------|    |-----------|
|-----------------------------------|    |-----------|
|-----------------------------------| x4 |-----------|
|-4--4-4-4-4--4-3-1--1-1-1-1--1-3-4-|    |-1-1-1-1-1-|

Riff E
|-----------------------------------------------------------------------------------------------------|
|-----------------------------------------------------------------------------------------------------|
|-3------3------3------3-----3--------3-----3-----~------3-----3---------3-----3----------3-----3-----|
|---4-5----4-5-------5---4-5---4-5------4-5---4-5------5---4-5----4-5------4-5---4-5----5---4-5---4-5-|

|------------------------------------------------------------------------------------------|
|------------------------------------------------------------------------------------------|
|-3-----3------3------3-----3-----3-----3-----3--------15-------15-------15-------15-------|
|---4-5----4-5---4-5----4-5---4-5---4-5---4-5---4-5-------16-17----16-17----16-17----16-17-|

|-------------------------------------|
|-------------------------------------|
|-15-------15-------15-------15-------|
|----16-17----16-17----16-17----16-17-|

Fill 1
|------------10-------------------------13\12--10---------------------------------------12-------------|
|------10-12----12-10----------------10-----------12--10-----------10-10--10---------14----14-12-10----|
|-8-12-----------------10-11-12--12----------------------12---8--8-----------8----12----------------12-|
|------------------------------------------------------------------------------8-----------------------|

|-----------------------------------------------14------------------------|-------|
|-------10--12-13-12-10-------------------10-14----14-15--12--------------|-------|
|-8--12-----------------12-10-8-10/12--12--------------------15--12-8//12-|-8-----|
|-------------------------------------------------------------------------|---5-1-|

Runaway... 
|---------------|
|---------------|
|---------------| x8 
|-5-7-8-10--1---|

Riff F (Riff F has different fills and rhythmic variations, but it mainly stays in the same key)
|--------------------------------------------------------------------------------------------------------|
|-----------------------------3--------------------------------------------------------------------------|
|-----------------------------------------------------6-6-6-6-6-6-6-6-6-6-6-6-5--5-6-6-6-5-5---5-5-------|
|-5~---5-5-5-x-x-3-x-x-1--1-1---1--x-x-3-x-x-5-7-8-10----------------------------------------------6-5-1-|

|-------------------------------------------------|
|-------------------------------------------------|
|-------------------------------------------------| x3
|-1-1-1-1-1-1-1-1-1-1-1-1-0-0-0-0-0-0-0-0-0-0-0-0-|

Riff G x4
|----------------------------------------------------------------------------------------------------------|
|----10----12--------10----12-------10----12--------10----12-------7---10-----7---10-----7---10-----7---10-|
|-12----12----12--12----12----12-12----12----12--12----12----12--8---8----8-8---8----8-8---8----8-8---8----|
|----------------------------------------------------------------------------------------------------------|

Riff H
|-------------------------------------------------------------------------------------|
|-------------------------------------------------------------------------------------|
|-3-----3-----3-----3-----3-----3-----3-----3-----3-----3-----3-----3-----3-----3-----| Repeat until end. 
|---4-5---4-5---4-5---4-5---4-5---4-5---4-5---4-5---4-5---4-5---4-5---4-5---4-5---4-5-|
Добавлено: 18.10.2015
Другие материалы по этой песне:
  • Аккорды и текст

Страница создана 18.10.2015
http://primanota.ru/mothers-cake/runaway-chords.htm
Привет, Гость.
Предлагаем пройти революционный курс по гитаре.
Подарок от PrimaNota.Ru, забирай!