PrimaNota.ru - самый крупный в мире бесплатный архив песенных текстов, аккордов, табулатур и нот


Motherjane - Clayplay - таба, видео

Регистрация Запомнить меня
Войти через:  Facebook Google Twitter Vk Yandex Mail.ru

Motherjane - Clayplay - таба, видео

Печатать
Просмотров: 36
-------------------------------------------------------------------------------
                             Clay play -Motherjane
-------------------------------------------------------------------------------
Tabbed by:Anarchyx
E-mail:anarchyx04@gmail.com

Tuning: C G D G B E


 Intro: Clean

e|------------------------3----------------3-----------------------------------|
B|-----1---1-------1----1-------1------1----------1--------1-------------------|
G|-------3---3--------3-------------3-----------------3---------0--------------|
D|-----------------------------------------------------------------------------|
G|---3-----------3------------3---------------3--------------------------------|
C|-----------------------------------------------------------------------------|

e|-----------------3----------------------------------3---------------------------|
B|-----1-------1-----------1-------1-----------1---1---------1-----1--1-----------|
G|---------3--------------------3----1p0---------3-------------3------3-----------|
D|--------------------------------------------------------------------------------|
G|--3-----------------3---------------------3-----------3-------------------------|
C|--------------------------------------------------------------------------------|

Intro Riff (Dist.)

e|----------------------8----------------------------------------------------------|
B|------6---------------8----------------------------------------------------------|
G|------5---------------8----------------------------------------------------------|
D|------3---------------6---------------------------------------------------0------|
G|------5-------------------- ----------------------------------------0-3/5--------|
C|0--0------0--0--0--0------//////---0-0-0-0-0-0----0----------0---3---------------|

                            Slide

e|-----------------------------------------------------------------------------|
B|-----------------------------------------------------------------------------|
G|-----------------0-----------------------------------------------------------|
D|------0--------8---8---------------------------------------------------------|
G|--5/7-------------------5-5--------3--0--3-----------------------------------|
C|---------------------------------------------3--3----0-----0-0-0-0-0-0--0----|

e|--------------------------------------------------------------------------------|
B|--------------------------------------------------------------------------------|
G|--------------------------------------------------------------------------------|
D|--------------------------------------------------------------------------------|
G|--------------------------------------------------------------------------------|
C|-2--2---3-3/5-------------------------------------------------------------------|


Intro Riff Fill


e|-----------------------------------------------------------------------------|
B|-----------------------------------------------------------------------------|
G|--5/8\7/8\5-----7\-3----3---5---0--------------------------------------------|
D|-----------------------------------------------------------------------------|
G|--5/8\7/8\5-----7\-3----3---5---0--------------------------------------------|
C|-----------------------------------------------------------------------------|




e----------------------------------------------------------------------------------|
B|---------------------------------------------------------------------------------|
G|---------------------------------------0-----5/8\7/8\5---7\3-----3/10\7/8--------|
D|-------------------------------0-------------------------------------------------|
G|-------------------------0-3/5-----5/7-------5/8\7/8\5---7\3-----3/10\7/8--------|
C|0-0-0-0-0-0--0-----0--3----------------------------------------------------------|

e|-----------------------------------------------------------------------------|
B|-----------------------------------------------------------------------------|
G|------------------------------5~~~~~-----------------------------------------|
D|-----------------------------------------------------------------------------|
G|-----------------------------------------------------------------------------|
C|0-0-0---0-0-----2-2---3-3/5--------------------------------------------------|

************************************

| /   slide up
| \   slide down
| h   hammer-on
| p   pull-off
| ~   vibrato
| +   harmonic
| x   Mute note
| b   Bend
| pb  Pre-bend
| br  Bend release
| pbr Pre-bend release
| brb Bend release bend

************************************
Добавлено: 06.11.2015
Другие материалы по этой песне:
  • Аккорды и текст

Страница создана 06.11.2015
http://primanota.ru/motherjane/clayplay-chords.htm
Привет, Гость.
Предлагаем пройти революционный курс по гитаре.
Подарок от PrimaNota.Ru, забирай!