PrimaNota.ru - самый крупный в мире бесплатный архив песенных текстов, аккордов, табулатур и нот


Mother Tongue - Burn Baby - таба, видео

Регистрация Запомнить меня
Войти через:  Facebook Google Twitter Vk Yandex Mail.ru

Mother Tongue - Burn Baby - таба, видео

Печатать
Просмотров: 75
Авторы: Mother Tongue

Burn Baby - MotherTongue


Intro:

           G                        A            D

6 x     E|---3-------------3---------------------------------------|
Guitar1 B|---3---------------3-----------------------------7-------|
        G|---4------4----------4------------------------7-----7----|
        D|--------5---5---------------------7--------7----------7--|
        A|-5----5------------------------7-------5-----------------|
        E|-3-------------3-----------5-----------------------------|


        E|---------------------------------------------------------|
Guitar2 B|-12~------12-12-11---------------------------------------|
        G|---------------------------14----------12h14p12----------|
        D|---------------------------------------------------------|
        A|---------------------------------------------------------|
        E|---------------------------------------------------------|

and     E|---------------------------------------------------------|
        B|-12~------12-12-11---------------17--------17h19p17------|
        G|---------------------------14----------------------------|
        D|---------------------------------------------------------|
        A|---------------------------------------------------------|
        E|---------------------------------------------------------|



           Oh man, it's blood outside
           ...

          

prechorus :

          Em           D    A 
  
6 x     E|-7--7-7--x---5--------------------|
Guitar1 B|-8--8-8--x---7--------------------|
        G|-9--9-9--x---7--------------------|
        D|-9--9-9--x---7-----7---7---7-7----|
        A|-7--7-7--x---5-----7---7---7-7----|
        E|-7--7-7--x---5-----5---5---5-5----|


Guitar2 A|--------5h7-----------------------|
  
         Burn
         Baby




Intro again (with Variations on guitar2)

         The Memphis blues
         ...



chorus :

      Em          D5    A 

     E|-7--7-7--x---5-------------------------|
     B|-8--8-8--x---7-------------------------|
     G|-9--9-9--x---7-----4-x--4-x--4--x--4-4-|
     D|-9--9-9--x---7-----7-x--7-x--7--x--7-7-|
     A|-7--7-7--x---5-----7-x--7-x--7--x--7-7-|
     E|-7--7-7--x---5-----5-x--5-x--5--x--5-5-|

       Burn
       Baby


        Em          D    A                   B     G         

     E|-7--7-7--x---5----------------------|-------------------------|
     B|-8--8-8--x---7----------------------|-------------------------|
     G|-9--9-9--x---7-----4---4---4----4-4-|--8-----4--4--4--4--4----|
     D|-9--9-9--x---7-----7---7---7----7-7-|--9-----5--5--5--5--5----|
     A|-7--7-7--x---5-----7---7---7----7-7-|--9-----5--5--5--5--5----|
     E|-7--7-7--x---5-----5---5---5----5-5-|--7-----3--3--3--3--3----|



        A            F         G                   

     E|-5--5--5--5---1---------3-----------------------|
     B|-5--5--5--5---1---------3-----------------------|
     G|-6--6--6--6---2---------4-----4---4---4----4--4-|
     D|-7--7--7--7---3-----x---5-----5---5---5----5--5-|
     A|-7--7--7--7---3-----x---5-----5---5---5----5--5-|
     E|-5--5--5--5---1-----x---3-----3---3---3----3--3-|

          Burn
          .........


Transscripted by MasterF (masterf@keashsoft.com) 
             and TheBigBadWolf (wolfganglechner@keashsoft.com) 

www.keashsoft.com

official Homepage   : www.mothertongue.net
MotherTongueFanpage : www.keashsoft.com/TheSeed/index.htm
     
Добавлено: 13.06.2013
Другие материалы по этой песне:
  • Аккорды и текст

Страница создана 13.06.2013
http://primanota.ru/mother-tongue/burn-baby-chords.htm
Привет, Гость.
Предлагаем пройти революционный курс по гитаре.
Подарок от PrimaNota.Ru, забирай!