PrimaNota.ru - самый крупный в мире бесплатный архив песенных текстов, аккордов, табулатур и нот


Mostly Autumn - Something Better - таба, видео

Регистрация Запомнить меня
Войти через:  Facebook Google Twitter Vk Yandex Mail.ru

Mostly Autumn - Something Better - таба, видео

Печатать
Просмотров: 153
Уроки эстрадного вокала в Санкт-Петербурге
| /   slide up
| \   slide down
| h   hammer-on
| p   pull-off
| m   play then mute 
| ˄   up strum
| x   mute string
| ~   let note ring

Tempo: 120-126

Intro

e|------------------|------------------|-----------------|------------------|
B|------------------|------------------|-----------------|------------------|
G|------------------|------------------|-----------------|---------7-7\-----|
D|------------------|------------------|-----------------|---------7-7\-----|
A|------------------|------------------|-----------------|---------5-5\-----|
E|--0-0-0-0-0-0-0-0-|-0-0-0-0-0-5-0-3--|-0-0-0-0-0-0-0-0-|-0-0-0-0----------|

e|------------------|------------------|------------------|-----------------|
B|------------------|------------------|------------------|-----------------|
G|--\\--------------|------------------|---------------7~-|-5~--------------|
D|--\\--------------|------------------|---------------7~-|-5~--------------|
A|--\\--------------|------------------|---------------5~-|-3~--------------|
E|-----0-0-0-0-0-0--|-0-0-0-0-0-5-0-3--|-0-0-0-0-0-0-0----|-----------------|

Verse 1

e|------------------|-----------------|-----------------|-----------------|
B|------------------|-----------------|-----------------|-----------------|
G|------------------|-----------------|-----------------|-----------------|
D|------------------|-----------------|-----0-------0---|-----0-------0---|
A|------------------|-----------------|---2---2---2---2-|---2---2---2---2-|
E|--0-0-0-0-0-0-0-0-|-0-0-0-0-0-0-0-0-|-3-------3-------|-3-------3-------|

e|------------------|-----------------|-----------------|-----------------|| (x2)
B|------------------|-----------------|-----------------|-----------------||
G|------------------|-----------------|--7--7----5~-----|-----------------||
D|------------------|-----------------|--7--7----5~-----|-----------------||
A|------------------|-----------------|--5--5----3~-----|-----------------||
E|--0-0-0-0-0-0-0-0-|-0-0-0-0-0-0-0-0-|-----------------|-----------------||

Chorus

e||------------------|------------------|------------------|------------------|| (x2)
B||------------------|------------------|------------------|------------------||
G||-7----Strumming---|-7----Strumming---|------------------|------------------||
D||-7----------------|-7----------------|-7/8-8-8--7/8-8-8-|-7/8-8-8--7/8-8-8-||
A||-5----------------|-5----------------|-7/8-8-8--7/8-8-8-|-7/8-8-8--7/8-8-8-||
E||------------------|------------------|-5/6-6-6--5/6-6-6-|-5/6-6-6--5/6-6-6-||

e|-------------------|------------------|-----------------|-----------------|
B|-------------------|------------------|-----------------|-----------------|
G|-------------------|------------------|-2---Strumming---|-2---Strumming---|
D|-3----Strumming----|-3----Strumming---|-2---------------|-2---------------|
A|-3-----------------|-3----------------|-0---------------|-0---------------|
E|-1-----------------|-1----------------|-----------------|-----------------|

Post Chorus

e|------------------|------------------|-----------------|------------------|
B|------------------|------------------|-----------------|------------------|
G|------------------|------------------|-----------------|---------7-7\-----|
D|------------------|------------------|-----------------|---------7-7\-----|
A|------------------|------------------|-----------------|---------5-5\-----|
E|--0-0-0-0-0-0-0-0-|-0-0-0-0-0-5-0-3--|-0-0-0-0-0-0-0-0-|-0-0-0-0----------|

e|------------------|------------------|------------------|-----------------|
B|------------------|------------------|------------------|-----------------|
G|--\\--------------|------------------|---------------7~-|-5~--------------|
D|--\\--------------|------------------|---------------7~-|-5~--------------|
A|--\\--------------|------------------|---------------5~-|-3~--------------|
E|-----0-0-0-0-0-0--|-0-0-0-0-0-5-0-3--|-0-0-0-0-0-0-0----|-----------------|

Verse 2

e|------------------|-----------------|-----------------|-----------------|
B|------------------|-----------------|-----------------|-----------------|
G|------------------|-----------------|-----------------|-----------------|
D|------------------|-----------------|-----0-------0---|-----0-------0---|
A|------------------|-----------------|---2---2---2---2-|---2---2---2---2-|
E|--0-0-0-0-0-0-0-0-|-0-0-0-0-0-0-0-0-|-3-------3-------|-3-------3-------|

e|------------------|-----------------|-----------------|-----------------| 
B|------------------|-----------------|-----------------|-----------------|
G|------------------|-----------------|--7--7----5~-----|-----------------|
D|------------------|-----------------|--7--7----5~-----|-----------------|
A|------------------|-----------------|--5--5----3~-----|-----------------|
E|--0-0-0-0-0-0-0-0-|-0-0-0-0-0-0-0-0-|-----------------|-----------------|

e|------------------|-----------------|-----------------|-----------------|
B|------------------|-----------------|-----------------|-----------------|
G|------------------|-----------------|-----------------|-----------------|
D|------------------|-----------------|-----0-------0---|-----0-------0---|
A|------------------|-----------------|---2---2---2---2-|---2---2---2---2-|
E|--0-0-0-0-0-0-0-0-|-0-0-0-0-0-0-0-0-|-3-------3-------|-3-------3-------|

e|------------------|-----------------|-----------------|-----------------| 
B|------------------|-----------------|-----------------|-----------------|
G|------------------|-----------------|--7--7----9~-----|--7--7----9~-----|
D|------------------|-----------------|--7--7----9~-----|--7--7----9~-----|
A|------------------|-----------------|--5--5----7~-----|--5--5----7~-----|
E|--0-0-0-0-0-0-0-0-|-0-0-0-0-0-0-0-0-|-----------------|-----------------|

Chorus

e||------------------|------------------|------------------|------------------|| (x2)
B||------------------|------------------|------------------|------------------||
G||-7----Strumming---|-7----Strumming---|------------------|------------------||
D||-7----------------|-7----------------|-7/8-8-8--7/8-8-8-|-7/8-8-8--7/8-8-8-||
A||-5----------------|-5----------------|-7/8-8-8--7/8-8-8-|-7/8-8-8--7/8-8-8-||
E||------------------|------------------|-5/6-6-6--5/6-6-6-|-5/6-6-6--5/6-6-6-||

e|-------------------|------------------|-----------------|-----------------|
B|-------------------|------------------|-----------------|-----------------|
G|-------------------|------------------|-2---Strumming---|-2---Strumming---|
D|-3----Strumming----|-3----Strumming---|-2---------------|-2---------------|
A|-3-----------------|-3----------------|-0---------------|-0---------------|
E|-1-----------------|-1----------------|-----------------|-----------------|

Solo

e|----------------------------------------------------------------------------20-15----------
B|----10-12-13-12p10----------------------10-12-13-12p10---------10~-8-10/12--------17-18----
G|-/9----------------9~----------------/9----------------9~-9-12--------------------------17-
D|----------------------10-10b12r10-9~-------------------------------------------------------
A|-------------------------------------------------------------------------------------------
E|-------------------------------------------------------------------------------------------

--------------------------------------------------|
--------------------------------------------------|
17-19-16--16h17-16~--12-9-7-7/9~-7b9r7p5-7~-4h5-4-|
---------------------12-9-7-7/9~------------------|
--------------------------------------------------|
--------------------------------------------------|

Chorus

e||------------------|------------------|------------------|------------------|| (x2)
B||------------------|------------------|------------------|------------------||
G||-7----Strumming---|-7----Strumming---|------------------|------------------||
D||-7----------------|-7----------------|-7/8-8-8--7/8-8-8-|-7/8-8-8--7/8-8-8-||
A||-5----------------|-5----------------|-7/8-8-8--7/8-8-8-|-7/8-8-8--7/8-8-8-||
E||------------------|------------------|-5/6-6-6--5/6-6-6-|-5/6-6-6--5/6-6-6-||

e|-------------------|------------------|-----------------|-----------------|
B|-------------------|------------------|-----------------|-----------------|
G|-------------------|------------------|-2---Strumming---|-2---Strumming---|
D|-3----Strumming----|-3----Strumming---|-2---------------|-2---------------|
A|-3-----------------|-3----------------|-0---------------|-0---------------|
E|-1-----------------|-1----------------|-----------------|-----------------|

e||------------------|------------------|------------------|------------------|| (x2)
B||------------------|------------------|------------------|------------------||
G||-7----Strumming---|-7----Strumming---|------------------|------------------||
D||-7----------------|-7----------------|-7/8-8-8--7/8-8-8-|-7/8-8-8--7/8-8-8-||
A||-5----------------|-5----------------|-7/8-8-8--7/8-8-8-|-7/8-8-8--7/8-8-8-||
E||------------------|------------------|-5/6-6-6--5/6-6-6-|-5/6-6-6--5/6-6-6-||

e|-------------------|------------------|-----------------|-----------------|
B|-------------------|------------------|-----------------|-----------------|
G|-------------------|------------------|-2---Strumming---|-2---Strumming---|
D|-3----Strumming----|-3----Strumming---|-2---------------|-2---------------|
A|-3-----------------|-3----------------|-0---------------|-0---------------|
E|-1-----------------|-1----------------|-----------------|-----------------|

Outro

e|------------------|------------------|-----------------|------------------|
B|------------------|------------------|-----------------|------------------|
G|------------------|------------------|-----------------|---------7-7\-----|
D|------------------|------------------|-----------------|---------7-7\-----|
A|------------------|------------------|-----------------|---------5-5\-----|
E|--0-0-0-0-0-0-0-0-|-0-0-0-0-0-5-0-3--|-0-0-0-0-0-0-0-0-|-0-0-0-0----------|

e|------------------|------------------|------------------|-----------------|
B|------------------|------------------|------------------|-----------------|
G|--\\--------------|------------------|---------------7~-|-5---------------|
D|--\\--------------|------------------|---------------7~-|-5--2------------|
A|--\\--------------|------------------|---------------5~-|-3--2------------|
E|-----0-0-0-0-0-0--|-0-0-0-0-0-5-0-3--|-0-0-0-0-0-0-0----|----0------------|
Добавлено: 24.04.2016
Другие материалы по этой песне:
  • Аккорды и текст

Страница создана 24.04.2016
http://primanota.ru/mostly-autumn/something-better-chords.htm
Привет, Гость.
Предлагаем пройти революционный курс по гитаре.
Подарок от PrimaNota.Ru, забирай!