PrimaNota.ru - самый крупный в мире бесплатный архив песенных текстов, аккордов, табулатур и нот


Mostly Autumn - Ice - таба, видео

Регистрация Запомнить меня
Войти через:  Facebook Google Twitter Vk Yandex Mail.ru

Mostly Autumn - Ice - таба, видео

Печатать
Просмотров: 120
Уроки эстрадного вокала в Санкт-Петербурге
-------------------------------------------------------------------------------
                             Ice - Mostly Autumn
-------------------------------------------------------------------------------
Tabbed by: lovablebigman
E-mail: lovablebigman123@gmail.com

Tuning: Standard

| /   slide up
| \   slide down
| h   hammer-on
| p   pull-off
| m   play then mute 
| ˄   up strum
| x   mute string
| ~   let note ring

Andante - 80-84

Clean electric until noted otherwise.

                 ˄  ˄  ˄  ˄
Intro            m  m  m
e||------------|-5--0--0--0-|| (x4)    
B||--3-3-3-3-3-|-5--3--2--3-||
G||--1/2-2-3-2-|-2--2--2--2-||
D||--0-0-0-0-0-|------------||
A||------------|------------||
E||------------|------------||

                 ˄  ˄  ˄  ˄
Verse 1          m  m  m
e||------------|-5--0--0--0-|--3--3-5-6-5-|-----6-5/3-3-3\5-|| (x4)
B||--3-3-3-3-3-|-5--3--2--3-|--3----------|-------x/x-x-x\x-||
G||--1/2-2-3-2-|-2--2--2--2-|--3----------|-5/7---5/3-3-3\5-||
D||--0-0-0-0-0-|------------|--0----------|-----------------||
A||------------|------------|-------------|-----------------||
E||------------|------------|-------------|-----------------||

Chorus
e|--------1-0-----|-------1-0~~|--------1-0-----|-------1-0~~~~~|
B|------3-----3---|-----3------|------3-----3---|-----3---------|
G|----2---------2~|---2--------|----2---------2~|---2-----------|
D|--0-------------|-0----------|--0-------------|-0-------------|
A|----------------|------------|----------------|---------------|
E|----------------|------------|----------------|---------------|

e|----------------|------------|----3~~~~~------|----------------|
B|--------4-3-----|-------4-3~~|----3~~~~~------|----------------|
G|------5-----5---|-----5------|----3~~~~~------|----------------|
D|----5---------5~|---5--------|----5~~~~~------|----------------|
A|--3-------------|-3----------|----5~~~~~------|----------------|
E|----------------|------------|----3~~~~~------|----------------|
Chords only arpeggiated live, only the keyboards play on the studio version.

                 ˄  ˄  ˄  ˄
Verse 2          m  m  m
e||------------|-5--0--0--0-|--3--3-5-6-5-|-----6-5/3-3-3\5-|| (x4)
B||--3-3-3-3-3-|-5--3--2--3-|--3----------|-------x/x-x-x\x-||
G||--1/2-2-3-2-|-2--2--2--2-|--3----------|-5/7---5/3-3-3\5-||
D||--0-0-0-0-0-|------------|--0----------|-----------------||
A||------------|------------|-------------|-----------------||
E||------------|------------|-------------|-----------------||

Chorus
e||--------1-0-----|-------1-0~~|--------1-0-----|-------1-0~~~~~|
B||------3-----3---|-----3------|------3-----3---|-----3---------|
G||----2---------2~|---2--------|----2---------2~|---2-----------|
D||--0-------------|-0----------|--0-------------|-0-------------|
A||----------------|------------|----------------|---------------|
E||----------------|------------|----------------|---------------|

e||----------------|------------|----3~~~~~------|----------------|| (x2)
B||--------4-3-----|-------4-3~~|----3~~~~~------|----------------||
G||------5-----5---|-----5------|----3~~~~~------|----------------||
D||----5---------5~|---5--------|----5~~~~~------|----------------||
A||--3-------------|-3----------|----5~~~~~------|----------------||
E||----------------|------------|----3~~~~~------|----------------||

Bridge
e|--5-5-----5-5-----5-5------|--5-5-----5-5-----5-5-----5-5-|
B|------8-8-----8-8-----8-8--|------8-8-----8-8-----8-8-----|
G|---------------------------|------------------------------|
D|---------------------------|------------------------------|
A|---------------------------|------------------------------|
E|---------------------------|------------------------------|

e|---------------------|        |-5---5---5---|-5---5---5---|
B|-\\\-\\\-\\\-\\\\\---|        |-8-8-8-8-8-8-|-8-8-8-8-8-8~|
G|--\-\-\---\-----\----|        |-------------|-------------|
D|---\\--\\\-\\\---\---|        |-------------|-------------|
A|----\-\-\-----\---\--|        |-------------|-------------|
E|-----\-\-\\\-\\\---\-|        |-------------|-------------|
Rest for 36 measures except for : 17-18 and 27-28, play ˄


˅˅ Light Distortion from here through the finish. ˅˅
e||-----------------|-----------------| then --- then --- then ---|| (x2)
B||-3-3-3-3-3-3-3-3-|-3-3-3-3-3-3-3-3-|      -5-      ---      ---||
G||-3-3-3-3-3-3-3-3-|-3-3-3-3-3-3-3-3-|      -5-      -2-      -5-||
D||-3-3-3-3-3-3-3-3-|-3-3-3-3-3-3-3-3-|      -5-      -2-      -5-||
A||-1-1-1-1-1-1-1-1-|-1-1-1-1-1-1-1-1-|      -3-      -1-      -5-||
E||-----------------|-----------------|      ---      ---      -3-||
Palm Muted -------------------------------------------------------->


Outro
e||----6---6-8---10---|-6---6---6-8---10---|----8---8-10---12---|-8---8---8-10---12---|
B||-/6---6-----6----6-|---6---6-----6----6-|-/8---8------8----8-|---8---8------8----8-|
G||-------------------|--------------------|--------------------|---------------------|
D||-------------------|--------------------|--------------------|---------------------|
A||-------------------|--------------------|--------------------|---------------------|
E||-------------------|--------------------|--------------------|---------------------|


e|------------------------|--------------------|-------------------------|----/15~~~~--|| Repeat
B|-/12-13-12-----13-12----|-13-12-----13-12----|-10-11-------10-11-------|-------------|| until
G|-----------12~~------12-|-------12~~------12-|-------10-10-------10-10-|-10----------|| the end
D|------------------------|--------------------|-------------------------|-------------||
A|------------------------|--------------------|-------------------------|-------------||
E|------------------------|--------------------|-------------------------|-------------||
                                                                                 
                                                                                 

Should be 100%, if not close to it. Some parts are hard to hear on the studio version of the song, so you
might want to try to listen to it live to figure out some of it. Otherwise, enjoy this great tune from a
fantastic artist. Feel free to email with improvements if spotted.
Добавлено: 04.10.2015
Другие материалы по этой песне:
  • Аккорды и текст

Страница создана 04.10.2015
http://primanota.ru/mostly-autumn/ice-chords.htm
Привет, Гость.
Предлагаем пройти революционный курс по гитаре.
Подарок от PrimaNota.Ru, забирай!