PrimaNota.ru - самый крупный в мире бесплатный архив песенных текстов, аккордов, табулатур и нот


Mosh Ben-Ari - Jah Is One - таба, видео

Регистрация Запомнить меня
Войти через:  Facebook Google Twitter Vk Yandex Mail.ru

Mosh Ben-Ari - Jah Is One - таба, видео

Печатать
Просмотров: 69
Moosh Ben Ari 
with the Fools of the prophecy (Shotey Ha'Nevua)

::::   Jah is one   ::::



Tab by Avi Yaacov
Israel, August 2015



Chords for the whole song:

    Abm      B      F#       E

e|---4---|---7---|---2---|---7---|
B|---4---|---7---|---2---|---9---|
G|---4---|---8---|---3---|---9---|
D|---6---|---9---|---4---|---9---|
A|---6---|---9---|---4---|---7---|
E|---4---|---7---|---2---|-------|



Lead guitar:

e|-------|-------------------------------------------|------------|
B|--4-4--|--4-4--5-5--4-4--2-2-------5-5-4-4--4-4----|--4-4--5-5--|
G|-------|-------------------------------------------|------------|
D|-------|-------------------------------------------|------------|
A|-------|-------------------------------------------|------------|
E|-------|-------------------------------------------|------------|

e|------------------------------------------------|
B|--4-4------5-5--4-4--2-2-------4-4-5-5---4-4----|
G|---------------------------------------------6--|
D|------------------------------------------------|
A|------------------------------------------------|
E|------------------------------------------------|

e|--------------------------------------------------------|-----|
B|--9-9-9------9-11---9-11---11-12---9-11----7-9-9-7------|-----|
G|---------------------------------------------------9-8--|--8--|
D|--------------------------------------------------------|-----|
A|--------------------------------------------------------|-----|
E|--------------------------------------------------------|-----|

e|---------------6--------|--7-7-7--6-6-6--------------------|
B|------7-9-9--9---7-9-9--|-------------------7-9-9-7--------|
G|--8-9-------------------|---------------8-9---------9-8-8--|
D|------------------------|----------------------------------|
A|------------------------|----------------------------------|
E|------------------------|----------------------------------|


e|----------------------------------------|
B|----------------------------------------|
G|--------------6-------------------------|
D|--6-8-9-9---9---8-9-9-----6-8-----------|
A|------------------------------9-7-6-----|
E|----------------------------------------|

e|-------------------------------|-------------11--------11---------|
B|-------------------------------|--12---12-12-----12-12----12-14---|
G|----------------------6-8-8-8--|----------------------------------|
D|--------6-6-----6h8h9----------|----------------------------------|
A|--6-7-9------9-----------------|----------------------------------|
E|-------------------------------|----------------------------------|

e|--------------11--------11-------------------------------------|
B|--12-12-12-12-----12-12-----------12----14--------12----14-----|
G|----------------------------13-13----13--------13----13--------|
D|---------------------------------------------------------------|
A|---------------------------------------------------------------|
E|---------------------------------------------------------------|



e|-----11----11----------------------------------|
B|--12----12----12------12-14---12---------------|
G|-----------------13--------------13------------|
D|-----------------------------------------------|  X repeat
A|-----------------------------------------------| 
E|-----------------------------------------------|

e|--------------9---------------------|
B|--9-9-9-12------11----9-9-9---------|
G|----------------------------11-9-8--|
D|------------------------------------|
A|------------------------------------|  main lead
E|------------------------------------|

e|-----------------------------9-----------------------------|------------|
B|--9-9-9-12-12-12----12-12-12---11-11-----11-12-9-----------|------7-9-9-|
G|---------------------------------------------------11-9-8--|--8-9-------|
D|-----------------------------------------------------------|------------|
A|-----------------------------------------------------------|------------|
E|-----------------------------------------------------------|------------|


Other than small variations on this theme, this should give a good idea how to play this cool song...
Добавлено: 19.06.2016
Другие материалы по этой песне:
  • Аккорды и текст

Страница создана 19.06.2016
http://primanota.ru/mosh-ben-ari-2/jah-is-one-chords.htm
Привет, Гость.
Предлагаем пройти революционный курс по гитаре.
Подарок от PrimaNota.Ru, забирай!