PrimaNota.ru - самый крупный в мире бесплатный архив песенных текстов, аккордов, табулатур и нот


Moses Sumney - Plastic - аккорды и текст, видео

Регистрация Запомнить меня
Войти через:  Facebook Google Twitter Vk Yandex Mail.ru

Moses Sumney - Plastic - аккорды и текст, видео

Печатать
Просмотров: 68
Plastic
Moses Sumney
-----------------------------------------------------------------------------
                             Plastic - Moses Sumney
-----------------------------------------------------------------------------
Tabbed by: Lee Jones
Email: Leejones321@msn.com

Tuning: Standard EADGBe

CHORDS USED:

    F#9  B7M    C#m7  D#m7  G#9  Dm7  Fm7  A#7  G#m7  C#9  A#m7  D#9  Am7
e|--x----x------x-----x-----x----x----x----x----x-----x----x-----x----x--------------------|
B|--9----4------9-----11----11---10---9----6----4-----4----6-----6----5--------------------|
G|--9----3------9-----11----11---10---8----7----4-----4----6-----6----5--------------------|
D|--8----4------9-----11----10---10---10---6----4-----3----6-----5----5--------------------|
A|--9----2------x-----x-----11---x----8----x----x-----4----x-----6----x--------------------|
E|--x----x------9-----11----x----10---x----6----4-----x----6-----x----5--------------------|


Note: /*D#m7 (& /*Am#7) in the chorus is a bass note slide from after F#9 (& C#9) as shown;

    /* D#m7                /* A#m7
e|-----------x---x---    ---------x--x--|
B|-----------11--11--    ---------6--6--|
G|-----------11--11-- OR ---------6--6--|
D|-----------11--11--    ---------6--6--|
A|-----------x---x---    ---------x--x--|
E|--9/10/11------11--    --4/5/6-----6--|


INTRO

G#9  D#m7  C#m7  F#9 / B7M  
Mmm hmm

VERSE

C#m7                                   F#9          
I know what is to be broken and be bored
                 D#m7                            
Tell you that my silver is gold
           G#9                     Dm7             
Though I'm much too old for make believe
      C#m7                                         F#9            
And I know what it's like to be hold and not be held
            D#m7                              
Funny how a stomach can fail
   G#9                                                      
Seems satisfied cause it's well and swollen
 
C#m7                                    
Yoooouuuu got me
F#9                                           
Shootin' 'cross the sky like a star
    Fm7               A#7                                
But nobody told me to never let it get too far
C#m7                                            F#9/        
See my silhouette, so you're standing scared of me
   B7M              
Mmm hmm
B7M   (Once)                               
     Can I tell you a secret?

CHORUS

C#m7                                
My wings are made of plastic,
F#9                                  
My wings are made of plastic,
/* D#m7                                
My wings are made of plastic,
G#9                          Dm7        
My wings are made of plastic, oh
                                   
C#m7                                          
My wings are made of plastic,
F#9                                  
My wings are made of plastic,
/* D#m7                                 
My wings are made of plastic,
G#9                            G#m7                           
My wings are made of plastic...plastic

C#9                                      
My wings are made of plastic,
/* A#m7                                
My wings are made of plastic,
D#m7                          Am7      
My wings are made of plastic, oh
C#m7              F#9 (Once, Arpeggio)                   
My wings are made up
          B7M   (Fade out only playing down strums)           
and so am I
Добавлено: 17.12.2015
Другие материалы по этой песне:
  • Аккорды и текст

Страница создана 17.12.2015
http://primanota.ru/moses-sumney/plastic-chords.htm
Привет, Гость.
Предлагаем пройти революционный курс по гитаре.
Подарок от PrimaNota.Ru, забирай!