PrimaNota.ru - самый крупный в мире бесплатный архив песенных текстов, аккордов, табулатур и нот


Moses Gunn Collective - Shalala - таба, видео

Регистрация Запомнить меня
Войти через:  Facebook Google Twitter Vk Yandex Mail.ru

Moses Gunn Collective - Shalala - таба, видео

Печатать
Просмотров: 31
-----------------------------------------------------------------------------
                      Moses Gunn Collective - Shalala
-----------------------------------------------------------------------------
Tabbed by: Marcus Marchal (Warflojd)
E-mail: mackan_003_94@hotmail.com

Tuning: Standard
Capo: 0


Intro: Am - G (x4)
(This is played scattered all throughout the song)
e|-------7---5-7--------------------------|
B|---------------8-7---------5-------5----|
G|-----5---5-----------------4-------4----|
D|-------------------------0---0---0---0--|
A|-5--------------------------------------|
E|-----------------------3-------3--------|  (x4)

Am                       G
   They say the good die young,
Am                         G
   While the bad they just have their fun
Am                    G
   The young good got no one
Am                           G
   A thousand kisses for the one in the sun
C        D
Shalalalala

Am             D             C                D
Don't dye your hair when you lie in your deathbed
        Am       D    C    D
Singing shalalalala
Am             D             C           D
Don't dye your hair when you lie in your deathbed
Am       D
Shalalalala

C - D

Am             G
   It will be okay kid,
Am                        G
   Got your ticking bomb, new sensation
Am           G
   But it is breaking,
Am                           G
   A thousand kisses for the morning shapes men
C        D
Shalalalala

Am             D             C                D
Don't dye your hair when you lie in your deathbed
        Am       D    C    D
Singing shalalalala
Am             D             C           D
Don't dye your hair when you lie in your deathbed
Am       D
Shalalalala

C - D

Am - D - C - D

Am       D    C    D
Shalalalala

Am - D - C - D

Am       D
Shalalalala

C - D

Am - D - C - D (x4) - During guiar solo
Guitar Solo (also played during the last "shalala-part")
e|----------10-----------------------|
B|-------10----12-10h12--8-7h8--7----|
G|--9/12--------------------------9--|
D|-----------------------------------|
A|-----------------------------------|
E|-----------------------------------|

e|----------10---------------------|
B|-------10----12-10h12--8-7h8--7--|
G|--9/12---------------------------|
D|---------------------------------|
A|---------------------------------|
E|---------------------------------|

e|----------10-----------------------|
B|-------10----12-10h12--8-7h8--7----|
G|--9/12--------------------------9--|
D|-----------------------------------|
A|-----------------------------------|
E|-----------------------------------|

e|----------10------------------------------|
B|-------10----12b13--13-13-13-13-13-13-13--|
G|--9/12------------------------------------|
D|------------------------------------------|
A|------------------------------------------|
E|------------------------------------------|

Am             D             C                D
Don't dye your hair when you lie in your deathbed
        Am       D    C    D
Singing shalalalala
Am             D             C           D
Don't dye your hair when you lie in your deathbed
Am       D
Shalalalala

C - D

Am       D    C    D
Shalalalala
Am       D    C    D
Shalalalala
Am       D    C    D
Shalalalala
Am       D
Shalalalala

C - D
Добавлено: 26.05.2016
Другие материалы по этой песне:
  • Аккорды и текст

Страница создана 26.05.2016
http://primanota.ru/moses-gunn-collective/shalala-chords.htm
Привет, Гость.
Предлагаем пройти революционный курс по гитаре.
Подарок от PrimaNota.Ru, забирай!