PrimaNota.ru - самый крупный в мире бесплатный архив песенных текстов, аккордов, табулатур и нот


Moses Gunn Collective - Neighbourhood - таба, видео

Регистрация Запомнить меня
Войти через:  Facebook Google Twitter Vk Yandex Mail.ru

Moses Gunn Collective - Neighbourhood - таба, видео

Печатать
Просмотров: 28
-----------------------------------------------------------------------------
                  Moses Gunn Collective - Neighbourhood
-----------------------------------------------------------------------------
Tabbed by: Marcus Marchal (Warflojd)
E-mail: mackan_003_94@hotmail.com

Tuning: Standard
Capo: 0


Intro:
e|-----------------------------------------------------------------------
B|------1---------------6-----1-----1---------------6-----6-----6-----6--
G|----2---2/9-----9---7-----2-----2---2/9-----9---7-----7-----7-----7----
D|--3----------10---8-----3-----3----------10---8-----8-----8-----8------
A|-----------------------------------------------------------------------
E|-----------------------------------------------------------------------

How I love my neighbourhood
Leg of lamb and a kitchen knife
Lay my head down when I sleep at night
White-painted fence where I can hide
Ooh-ooh-ooh-ooh
e|-------------------------------
B|------1---------------6-----1--
G|----2---2/9-----9---7-----2----
D|--3----------10---8-----3------
A|-------------------------------
E|------------------------------- (x7)

e|-------------------------------------------
B|------1---------------6-----6-----6-----6--
G|----2---2/9-----9---7-----7-----7-----7----
D|--3----------10---8-----8-----8-----8------
A|-------------------------------------------
E|-------------------------------------------

How I love my neighbourhood
Forty inch screen and a blue blu-ray
Lay my head down when I sleep at night
Gone in the drawer so I'll survive
Ooh-ooh-ooh-ooh
e|-------------------------------
B|------1---------------6-----1--
G|----2---2/9-----9---7-----2----
D|--3----------10---8-----3------
A|-------------------------------
E|------------------------------- (x7)

e|-------------------------------------------
B|------1---------------6-----6-----6-----6--
G|----2---2/9-----9---7-----7-----7-----7----
D|--3----------10---8-----8-----8-----8------
A|-------------------------------------------
E|-------------------------------------------

How I love my neighbourhood
Morphing dreams, three kids in the wild
I shake the hands that fits me right
Pray that I make it to work on time
Ooh-ooh-ooh-ooh
e|-------------------------------
B|------1---------------6-----1--
G|----2---2/9-----9---7-----2----
D|--3----------10---8-----3------
A|-------------------------------
E|------------------------------- (x7)

e|-------------------------------------------
B|------1---------------6-----6-----6-----6--
G|----2---2/9-----9---7-----7-----7-----7----
D|--3----------10---8-----8-----8-----8------
A|-------------------------------------------
E|-------------------------------------------

How I love my neighbourhood
Nuclear dream and a golden raft
Get to a field where I see my eyes
Comfortably know we'll pass the time
Ooh-ooh-ooh-ooh
e|-------------------------------
B|------1---------------6-----1--
G|----2---2/9-----9---7-----2----
D|--3----------10---8-----3------
A|-------------------------------
E|------------------------------- (x7)

e|-----------------------------------------------
B|------1---------------6-----1------1-----------
G|----2---2/9-----9---7-----2------2---2/9----9--
D|--3----------10---8-----3----3-----------10----
A|-----------------------------------------------
E|-----------------------------------------------

e|-----------------------------
B|------6----6/8----8-----8p6--
G|----7----7------7-----7------
D|--8----8------8-----8--------
A|-----------------------------
E|----------------------------- (x2)

e|---------------------------------------------------------------
B|------5-----5-----0-----0-----1-----1-----5-----5-----3-----3--
G|----7-----7-----2-----2-----2-----2-----2-----2-----2-----2----
D|--8-----8-----3-----3-----3-----3-----3-----3-----3-----3------
A|---------------------------------------------------------------
E|---------------------------------------------------------------

E|-----------------------------
B|------5-----5-----5-----5/6--
G|----4-----4-----4-----4------
D|--5-----5-----5-----5--------
A|-----------------------------
E|-----------------------------

F - G (x2)

          F 
I fall in love
       G
In a good time
          F
I fall in love
       G
real good time

          F
My neihgbourhood
          G
My neihgbourhood   
          F
My neihgbourhood
          G
My neihgbourhood   
          F
My neihgbourhood
          G
My neihgbourhood   
          F
My neihgbourhood
          G
My neihgbourhood 

          F       G
I fall in love
          F       G
I fall in love        
          F       G
I fall in love 
          F       G
I fall in love
          F       G
I fall in love

(Played during "I fall in love"^)
e|--10-12-10---------------------
B|----------13-10-------10-------
G|----------------10-12----12----
D|---------------------------12--
A|-------------------------------
E|-------------------------------
Добавлено: 26.05.2016
Вам также может быть интересно:
Другие материалы по этой песне:
  • Аккорды и текст

Страница создана 26.05.2016
http://primanota.ru/moses-gunn-collective/neighbourhood-chords.htm
Привет, Гость.
Предлагаем пройти революционный курс по гитаре.
Подарок от PrimaNota.Ru, забирай!