PrimaNota.ru - самый крупный в мире бесплатный архив песенных текстов, аккордов, табулатур и нот


Moses Gunn Collective - Hole In The Wall - таба, видео

Регистрация Запомнить меня
Войти через:  Facebook Google Twitter Vk Yandex Mail.ru

Moses Gunn Collective - Hole In The Wall - таба, видео

Печатать
Просмотров: 61
-----------------------------------------------------------------------------
                  Moses Gunn Collective - Hole In The Wall
-----------------------------------------------------------------------------
Tabbed by: Marcus Marchal (Warflojd)
E-mail: mackan_003_94@hotmail.com

Tuning: Standard
Capo: 0

Intro:
e|-------6-----6--4--------------------------|
B|---------4--------2---2------4---6---------|
G|-----------4--------3----------6---6-------|
D|------------------------1/4----------8--6--|
A|-------------------------------------------|
E|-------------------------------------------| (x8)

I found a hole in the wall
See me take the pain and the I break it off
Now you're home for the fall
e|--------6-------------6------|
B|----7-------7-9---7-------7--|
G|--8---8---8-----8---8---8----|
D|-----------------------------|
A|-----------------------------|
E|-----------------------------|  (x3)

You're in, you're out, you're in, you're out again
e|--------6-------------6-----------------|
B|----7-------7-9---7-------7--6-6-6-6-6--|
G|--8---8---8-----8---8---8---------------|
D|----------------------------------------|
A|----------------------------------------|
E|----------------------------------------|

I can't stop thinking 'bout the hole in the wall
There's something real inside the hole in the wall
You got me feeling 'round the hole in the wall
I'll just stay inside until I make my own goodbye
e|-------6-----6--4--------------------------|
B|---------4--------2---2------4---6---------|
G|-----------4--------3----------6---6-------|
D|------------------------1/4----------8--6--|
A|-------------------------------------------|
E|-------------------------------------------| (x4)

Leave your skin at the door
Make the hole in shapes and as it was before
We'll hide under the floor
e|--------6-------------6------|
B|----7-------7-9---7-------7--|
G|--8---8---8-----8---8---8----|
D|-----------------------------|
A|-----------------------------|
E|-----------------------------| (x3)

You're in, you're out, you're in, you're out again
e|--------6-------------6-----------------|
B|----7-------7-9---7-------7--6-6-6-6-6--|
G|--8---8---8-----8---8---8---------------|
D|----------------------------------------|
A|----------------------------------------|
E|----------------------------------------|

I can't stop thinking of the hole in the wall
There's something real inside the hole in the wall
You got me feeling 'round the hole in the wall
I'll just stay inside until I make my own goodbye
e|-------6-----6--4--------------------------|
B|---------4--------2---2------4---6---------|
G|-----------4--------3----------6---6-------|
D|------------------------1/4----------8--6--|
A|-------------------------------------------|
E|-------------------------------------------| (x4)

I just wanna be whole
Never wanted to be for
I just wanna be whole
Never wanted to be for
e|-----------------------------------------|
B|-----------------------------------------|
G|----------------------------------4-6-4--|
D|----7-6-7-6---6---------7-6-7-6-7--------|
A|------------9---9-6----------------------|
E|--5-----------------7-5------------------| (x2)

I just wanna be an hour
e|-------------------------------|
B|-------------------------------|
G|---------------------4------4--|
D|----4-4-4-2-----2h4----2h4-----|
A|------------4-2----------------|
E|--2----------------------------|  (x3)

e|----------------|
B|----------------|
G|----------------|
D|----4-4-4-2-----|
A|------------4-2-|
E|--2-------------|

I can't stop thinking 'bout the hole in the wall
There's something real inside the hole in the wall
You got me feeling 'round the hole in the wall
I'll just stay inside until I make my own goodbye
e|-------6-----6--4--------------------------|
B|---------4--------2---2------4---6---------|
G|-----------4--------3----------6---6-------|
D|------------------------1/4----------8--6--|
A|-------------------------------------------|
E|-------------------------------------------| (x4)

'Cause I'm thinking about the whole in the wall
There's something real inside the hole in the wall
You got me feeling 'round the hole in the wall
I'll just stay inside until I make my own goodbye
e|-------6-----6--4--------------------------|
B|---------4--------2---2------4---6---------|
G|-----------4--------3----------6---6-------|
D|------------------------1/4----------8--6--|
A|-------------------------------------------|
E|-------------------------------------------| (x4)

(Played on top of the last verse above^)
e|----------------------|
B|----11---11---11---11-|
G|--8----8----8----8----|
D|----------------------|
A|----------------------|
E|----------------------|
Добавлено: 26.05.2016
Другие материалы по этой песне:
  • Аккорды и текст

Страница создана 26.05.2016
http://primanota.ru/moses-gunn-collective/hole-in-wall-chords.htm
Привет, Гость.
Предлагаем пройти революционный курс по гитаре.
Подарок от PrimaNota.Ru, забирай!