PrimaNota.ru - самый крупный в мире бесплатный архив песенных текстов, аккордов, табулатур и нот


Moses Gunn Collective - Desdamona - таба, видео

Регистрация Запомнить меня
Войти через:  Facebook Google Twitter Vk Yandex Mail.ru

Moses Gunn Collective - Desdamona - таба, видео

Печатать
Просмотров: 22
-----------------------------------------------------------------------------
                    Moses Gunn Collective - Desdamona
-----------------------------------------------------------------------------
Tabbed by: Marcus Marchal (Warflojd)
E-mail: mackan_003_94@hotmail.com

Tuning: Standard
Capo: 0


Bm  E  D  E
Rio
F#m            E             D        E
Never gonna change for the broken-hearted

Bm  E  D  E
Rio
F#m            E             D      E
Never gonna change, never gonna change

Bm  E  D  E
Rio
F#m            E             D        E
Never gonna change for the broken-hearted

Bm  E  D  E
Rio
F#m            E             D        E
Never gonna change for the broken-hearted

Bm                E
Desdamona's sleeping
Bm                      E
In your kitchen all the time
Bm               E
You romantic sugar
Bm                   E
Left you on a sunset light

(Played during the verse above^)
e|-------------------------|
B|-------------------------|
G|--------4-6--------------|
D|--4-4-7-----4-7----------|
A|----------------7-7-7-7--|
E|-------------------------|  (x4)

e|------0-----3-3-2h3--2--------|
B|--------3--------------3------|
G|----4--------------------4-2--|
D|--5---------------------------|
A|------------------------------|
E|------------------------------|

A       E             Bm              D   E
I'll be fine, see you wainting in the sunshine
A        E             Bm                     D   E
I'll, be fine, see you spin a little piece of sunshine

Bm  E  D  E
Rio
F#m            E             D      E
Never gonna change, never gonna change

Bm  E  D  E
Rio
F#m           E             D        E
Never gonna change for the broken-hearted

Bm  E  D  E
Rio
F#m            E             D        E
Never gonna change for the broken-hearted

Bm                E
See if you remember
Bm                         E
Catch them in a plastic light
Bm               E
Desdamona's lonely
Bm                      E
Used to happen every night

(Played during the verse above^)
e|-------------------------|
B|-------------------------|
G|--------4-6--------------|
D|--4-4-7-----4-7----------|
A|----------------7-7-7-7--|
E|-------------------------|  (x4)

e|------0-----3-3-2h3--2--------|
B|--------3--------------3------|
G|----4--------------------4-2--|
D|--5---------------------------|
A|------------------------------|
E|------------------------------|

D - E - D
D   E
Sunshine!

D - E - D
D   E
Sunshine!

A       E             Bm              D   E
I'll be fine, see you wainting in the sunshine
A        E             Bm                     D   E
I'll, be fine, see you spin a little piece of sunshine

D   E
Sunshine!
D   E
Sunshine!
D   E
Sunshine!

Bm  E  D  E
Rio
F#m           E             D        E
Never gonna change for the broken-hearted

Bm  E  D  E
Rio
F#m            E             D        E
Never gonna change for the broken-hearted

Bm  E  D  E
Rio
F#m           E             D        E
Never gonna change for the broken-hearted

Bm  E  D  E
Rio
F#m            E             D        E
Never gonna change for the broken-hearted

D - E (x2 - End on E)
Добавлено: 26.05.2016
Другие материалы по этой песне:
  • Аккорды и текст

Страница создана 26.05.2016
http://primanota.ru/moses-gunn-collective/desdamona-chords.htm
Привет, Гость.
Предлагаем пройти революционный курс по гитаре.
Подарок от PrimaNota.Ru, забирай!