PrimaNota.ru - самый крупный в мире бесплатный архив песенных текстов, аккордов, табулатур и нот


Moses Gunn Collective - Colour Television - таба, видео

Регистрация Запомнить меня
Войти через:  Facebook Google Twitter Vk Yandex Mail.ru

Moses Gunn Collective - Colour Television - таба, видео

Печатать
Просмотров: 22
-----------------------------------------------------------------------------
                 Moses Gunn Collective - Colour Television
-----------------------------------------------------------------------------
Tabbed by: Marcus Marchal (Warflojd)
E-mail: mackan_003_94@hotmail.com

Tuning: Standard
Capo: 0

Intro: E - D - C#m - A
       C - B#m - Am - Ab

(Played during the intro, starting on the G-chord)
e|----------------------8-10-----|
B|-------------------10------12--|
G|--9-12-11----------------------|
D|----------12-9-8-7-------------|
A|-------------------------------|
E|-------------------------------|

e|---------------------------------------------------------|
B|---------------------------------------------------------|
G|-----------------------------------------11-11-11-11--9--|
D|----------2-4h5p4----------------2-4h5p4-11-11-11-11--9--|
A|----1-2-4---------1-2-4----1-2-4---------9--9--9--9---7--|
E|--2----------------------2-------------------------------|  (x2)

B                   A
  Colour television shine, I lost my mind

e|-------------------------|
B|-------------------------|
G|-------------------------|
D|----------2-4h5p4--------|
A|----1-2-4---------1-2-4--|
E|--2----------------------|

B                             A
  Your love's better than the one that is my wife

e|-------------------------|
B|-------------------------|
G|-------------------------|
D|----------2-4h5p4--------|
A|----1-2-4---------1-2-4--|
E|--2----------------------|

B                      A
  Met your mother in a store, what's divine

e|-------------------------|
B|-------------------------|
G|-------------------------|
D|----------2-4h5p4--------|
A|----1-2-4---------1-2-4--|
E|--2----------------------|

B                         A
  When I see you start to sweat, don't know why

e|---------------------------------------------|
B|---------------------------------------------|
G|------------------11-11-11-11--9-------------|
D|----------2-4h5p4-11-11-11-11--9-9-9-9-9--7--|
A|----1-2-4---------9--9--9--9---7-9-9-9-9--7--|
E|--2------------------------------7-7-7-7--5--|

e|--------5-4-4-4-4-4--|
B|------7---5-5-5-5-5--|
G|--4-7-----6-6-6-6-6--|
D|----------6-6-6-6-6--|
A|----------4-4-4-4-4--|
E|---------------------|

        F#m       C#m        Bm   C#m
I don't wanna see your disguise
        F#m       C#m            Bm   C#m
I don't wanna see your disguise, no
        F#m       C#m        Bm   C#m
I don't wanna see your disguise
      F#m        C#m      Bm   C#m
But I see you on the same road

e|---------------------------------------------------------|
B|---------------------------------------------------------|
G|-----------------------------------------11-11-11-11--9--|
D|----------2-4h5p4----------------2-4h5p4-11-11-11-11--9--|
A|----1-2-4---------1-2-4----1-2-4---------9--9--9--9---7--|
E|--2----------------------2-------------------------------|

B                   A
  Colour television give me paradise

e|-------------------------|
B|-------------------------|
G|-------------------------|
D|----------2-4h5p4--------|
A|----1-2-4---------1-2-4--|
E|--2----------------------|

B                        A
  Yellow, yellow put the colour in my eyes

e|-------------------------|
B|-------------------------|
G|-------------------------|
D|----------2-4h5p4--------|
A|----1-2-4---------1-2-4--|
E|--2----------------------|

B                         A
  Put the pieces of your face in my device

e|-------------------------|
B|-------------------------|
G|-------------------------|
D|----------2-4h5p4--------|
A|----1-2-4---------1-2-4--|
E|--2----------------------|

B                   A
  Colour television kill me every night

e|---------------------------------------------|
B|---------------------------------------------|
G|------------------11-11-11-11--9-------------|
D|----------2-4h5p4-11-11-11-11--9-9-9-9-9--7--|
A|----1-2-4---------9--9--9--9---7-9-9-9-9--7--|
E|--2------------------------------7-7-7-7--5--|

e|--------5-4-4-4-4-4--|
B|------7---5-5-5-5-5--|
G|--4-7-----6-6-6-6-6--|
D|----------6-6-6-6-6--|
A|----------4-4-4-4-4--|
E|---------------------|

        F#m       C#m        Bm   C#m
I don't wanna see your disguise
        F#m       C#m            Bm   C#m
I don't wanna see your disguise, no
        F#m       C#m        Bm   C#m
I don't wanna see your disguise
      F#m        C#m      Bm
But I see you on the same road

   A      Ab     G
Oh my, oh my, oh my,
   Bm     A      Ab     G
Oh my, oh my, oh my, oh my

e|--------------------------------------------------------------------|
B|--------------------------------------------------------------------|
G|-----------------------------------------11-11-11-11--9-------------|
D|----------2-4h5p4----------------2-4h5p4-11-11-11-11--9-9-9-9-9--7--|
A|----1-2-4----------1-2-4---1-2-4---------9--9--9--9---7-9-9-9-9--7--|
E|--2----------------------2------------------------------7-7-7-7--5--|
Добавлено: 26.05.2016
Другие материалы по этой песне:
  • Аккорды и текст

Страница создана 26.05.2016
http://primanota.ru/moses-gunn-collective/colour-television-chords.htm
Привет, Гость.
Предлагаем пройти революционный курс по гитаре.
Подарок от PrimaNota.Ru, забирай!