PrimaNota.ru - самый крупный в мире бесплатный архив песенных текстов, аккордов, табулатур и нот


Mortification - Ride The Light - текст песни, таба, видео

Регистрация Запомнить меня
Войти через:  Facebook Google Twitter Vk Yandex Mail.ru

Mortification - Ride The Light - текст песни, таба, видео

Печатать
Просмотров: 138
  Song:Ride The Light
  Band:Mortification
  CD:Hammer Of God
  Copyright:c1999 Rowe Productions
  Tabbed by Ed Morones


    Riff 1 Play 4x's
  e--------------------------------------------------------------|
  B--------------------------------------------------------------|
  G-------------0-2~~----------------------------0-2~~-------sl.-|
  D-------------0-2~~-------------p.h.-----------0-2~~7-6-5-5/6--|
  A---------------0------------3-2-----------------0--5-4-3-3/4--|
  E--0--0-0-0-0-3----0--0-0-0-0---3---0--0-0-0-0-3---------------|


    Riff 2 Play 4x's
  e------------------------------------|
  B------------------------------------|
  G---------------------------5-5~0-0--|
  D---------------------------5-5~0-00-|
  A--0-000-000-000-00-3-333-333-3------|
  E-------------------------------3-3--|
    After this play Riff 1 2x's.
    Then play Riff 2 4x's


    Riff 3 Play 6x's
  e-----------------------------------------|
  B-----------------------------------------|
  G--------2~------5~------2~-p.h.----------|
  D--------2~------5~------2~-2b(3)p0-------|
  A--2-2-2---2-2-2---2-2-2------------3-3-2-|
  E--0-0-0---0-0-0---0-0-0------------------|
    After solo bass and keyboard play an interlude
    below is keyboard part.It's c;ose to what is
    played.

    INTERLUDE:Play 2x's
  e----------------------------------|
  B--1-5-3-0-1-5-3-0-3-5-3-0-3-5-3-0-|
  G----------------------------------|
  D----------------------------------|
  A----------------------------------|
  E----------------------------------|
    After this play Riff 1 4x's.
    Riff 2 4x's
    Riff 3 4x's
    Riff 1 4x's



    End like this
  e--------------|
  B--------------|
  G--------------|
  D--6--6--7\----|
  A--4--4--5\----|
  E--------------|

  Any Q's or com's email Ed at
  5150rocker@sbcglobal.net
Добавлено: 09.04.2012
Другие материалы по этой песне:
  • Аккорды и текст

Страница создана 09.04.2012
http://primanota.ru/mortification/ride-the-light-chords.htm
Привет, Гость.
Предлагаем пройти революционный курс по гитаре.
Подарок от PrimaNota.Ru, забирай!