PrimaNota.ru - самый крупный в мире бесплатный архив песенных текстов, аккордов, табулатур и нот


Mortification - Medley - текст песни, таба, видео

Регистрация Запомнить меня
Войти через:  Facebook Google Twitter Vk Yandex Mail.ru

Mortification - Medley - текст песни, таба, видео

Печатать
Просмотров: 108
Album: Hammer of God
Transcribed by: "Teigetje" 19-12-2002 Carelsberg_christiaan@hotmail.com
Tuning in D (Italked to Steve at CRN,  normally he 
plays in C# Tuning, but this is recorded in D) 

Play to His glory

1) Lymphosarcoma (Scrolls) 

Kills imminuty Rapes the blood and bone of humanity
Brings a living corpse Grey and scaly skin
Haunted human ghost 

Lymphosarcoma, God extracted you
Lymphosarcoma, Never to return

---|---------------------------------------------------------------------x2-|-
-1-|------------------------------------------------------------------------|-
---|-----------------------------------------------------------------------*|-
---|-----------------------------------------------------------------------*|-
---|---4/5---3--3--3/--6/9---7--7--7---6/7---5--5--5---4/5---3--3--3--------|-
---|---2/3---1--1--1/--4/7---5--5--5---4/5---3--3--3---2/3---1--1--1--------|-
  p.m.       -  -  -         -  -  -         -  -  -         -  -  -          
		Kills imunity

---|--------------------------------------------------------------------------
-1-|--------------------------------------------------------------------------
---|--------------------------------------------------------------------------
---|--------------------------------------------------------------------------
---|---44/55---33-33-33--66/99--77-77-77--66/77--55-55-55--44/55--33-33-33----
---|---22/33---11-11-11--44/77--55-55-55--44/55--33-33-33--22/33--11-11-11----
 p.m.  -- --   -- -- --  -- --  -- -- --  -- --  -- -- --  -- --  -- -- --    

--------------------------------------------------------------------------|---
--------------------------------------------------------------------------|---
--------------------------------------------------------------------------|---
--------------------------------------------------------------------------|---
----4/5--33-33-33--66/99---77-77-77---66/77---55-55-55--44/55--33-33-33---|---
----2/3--11-11-11--44/77---55-55-55---44/55---33-33-33--22/33--11-11-11---|---
         -- -- --  -- --   -- -- --   -- --   -- -- --  -- --  -- -- --       

---|-------------------------------------------------------------------x6--|--
-1-|----------------------------------|------------------------------------|--
---|----------------------------------|*----------------------------------*|--
---|-3--3--3--3--3---------3-2-1------|*3--3--3--3------------3-2-1-------*|--
---|-3--3--3--3--3---2-1-1-------2-1--|-3--3--3--3------2-1-1-------2-1----|--
---|-1--1--1--1--1-2-----------------2--1--1--1--1--1-2-----------------2--|--
 p.m.-  -  -  -   \-only-Bass--------/  -  -  -  -                            
					Lymphosarcoma . . .  God extracted You

2) Destroyer Beholds (Mortification)

Disease in your life rots your soul,  Wretched hindrance to your growth in God
Recycle countless sin, bondage brings, Wretched hindrance to your growth in God
(Chorus)
Look at this young man, look at his face, What's the reason for this change
Revival in his heart, Causes havoc for the devil
The destroyer beholds x2
 
Your faith infested by the flesh,  Backslidden in your heart you have
no time for God
You don't read the word, what's your case,  Backslidden in your heart
you have no time for God 
(Chorus)
---|---------------------------+--------------------------x4-||
-2-|---------------------------+-----------------------------||
---|---------------------------+-----------------------------||
---|---------6-----5-----------+---4------------3------------||
---|--3------4-----3----6--6---+---2------5-----1----4--4----||
---|--1-----------------4--4---+----------3----------2--2----||

Disease in your life rots your soul,  Wretched hindrance to your growth in God

---|---------------------------------------------------------------------x2|--
-2-|-----------------------------------------------------------------------|--
---|-----------------------------------------------------------------------|--
---|----7b8r7-----5--5----4b5r4-----------7b8r7-----5--5----4b5r4----------|--
---|----5b6r5-----3--3----2b3r2-----5-----5b6r5-----3--3----2b3r2-----5----|--
---|--------------------------------3---------------------------------3----|--

Look at this young man, look at his face, What's the reason for this change

---|-------------------------------------------+---------------------x2||
-2-|-------------------------------------------+-----------------------||
---|-------------------------------------------+-----------------------||
---|-----------------9.------------------12.---+--------------9--------||
---|-----------------7.------------------10.---+--------------7--------||
---|--0---0--0--0--------0---0--0--0-----------+---0---0--0-0----------||
      p.m........|       p.m........|             p.m......|

						         The destroyer beholds

Distarnish Priest. (read note at bodom) (post momentary)

               Distarnish Priest
               I'm clean, washed in blood, sanctified inside out
               I'm dead to Satan's grasp, justified by the cross.

               verse1
               Vertical convulsion, striven force, grasp desired service
               Hideous onslaught attacks the mind.,  Vicious intent prevails.

               bridge
               Serve your God, Your time will come.

               verse2
               Beware, of trap of stardom faith,   Seek guidance for your life.
               Do not adom the priestly robes,     Covering filthy manifestation.

---|------------------------------------------------------------------x2--|---
-3-|----------------------------------------------------------------------|---
---|------8-------5-------4-------3--------8------5------4------3---------|---
---|------8-------5-------4-------3--------8------5------4------3---------|---
---|------6-------3-------2-------1--------6------3------2------1---------|---
---|----------------------------------------------------------------------|---
        distarnish priest.                                                                       

---|--------------------------------------------------------------------------
-3-|--------------------------------------------------------------------------
---|--------------------------------------------------------------------------
---|--8------------8------------8-------------5-------------4-----------------
---|--6---6-6-6----6---6-6-6----6---6-6-6-----3---3-3-3-----2--2-2-2----------
---|--------------------------------------------------------------------------
 p.m.     - - -        - - -        - - -         - - -        - - -          
     I'm clean,                                washed       in 

-----------------------------------------------------------------------x4--|--
---------------------------------------------------------------------------|--
--------------------------------------------------------------------------*|--
---4------------4----------------4-/-3------------------------------------*|--
---2---2-2-2----2---2-2-2--------2-/-1-------------------------------------|--
---------------------------------------------------------------------------|--
       - - -        - - -
blood

---|--------------------------------------------------------------------------
-3-|--------------------------------------------------------------------------
---|------------3---------------------------5---------------------------------
---|--3---------------------------5-------------------------------------------
---|--1--1-1-1-----1-1-1----------3--3-3-3-----3-3-3--------------------------
---|--------------------------------------------------------------------------

    Vertical 				convulsion,                                      

---------------------------------------------x4|--------------------------|---
-----------------------------------------------|--------------------------|---
-----------------------------------------------|---3----------------------|---
-------------------------4-----------5---------|---3----2-----2-----2-----|---
---4----------4--------------------------------|---1----2-----2-----2-----|---
---2---2-2-2-----2-2-2-------2-2-2------2-2-2--|--------0-----0-----0-----|---
 
   striven force                                  Serve – God – Time – come
  
 
Love song: 

Thinking about my life so far
Wondering what will be
I need a life that sets my spirit free 
So many choises in the world today
How will I survive
So many people let their spirits die 

Living within your guidence
Your ways help me survive
When my mind is with you I'm alive
You are the life within me
Resisting the ways of hate
I pledge to you resistance will never die 
Love song
This is it

---|-----------------------------------------------------------------------|--
-4-|-----------------------------------------------------------------------|--
---|-----------------------------------------------------------------------|--
---|-----------------------------------------------------------------------|--
---|-----5--7-------5--7-------5--7--2-------5--7------5--7------5--7---2--|--
---|--0--3--5----0--3--5----0--3--5--0----0--3--5---0--3--5---0--3--5---0--|--
  p.m;-  -  -    -  -  -    -  -  -       -  -  -   -  -  -   -  -  -         


---|---------------------------------------------------------------------x2-|-
---|------------------------------------------------------------------------|-
---|------------------------------------------------------------------------|-
---|------------------------------------------------------------------------|-
---|--7--5------7--5------7--5------3--2---7--5------7--5------7--5-----3--2|-
---|--5--3--0---5--3--0---5--3--0---1--0---5--3--0---5--3--0---5--3--0--1--0|-

        Love song, love song, love song , this is it                          

---|---------------------------------------------------------------------x2|--
---|-----------------------------------------------------------------------|--
---|-----------------------------------------------------------------------|--
---|-----------------------------------------------------------------------|--
---|--2------2--2--3-------3--3--2--------2--2--3----------5---------------|--
---|--0------0--0--1-------1--1--0--------0--0--1----------3---------------|--
                                                                              
   Thinking about my life so far.  

Note Distarnish Priest. :

Normally (for those who know) it is tabbed different, because normally the
guitars are tuned in C# (C sharp), bus on the Cd this is tuned in D, this is
why (and when you listen, you will notice) it is tabbed a little bit differend.
But the original tab of Distarnish priest is correct, but not in the medley
version.
Добавлено: 19.03.2012
Другие материалы по этой песне:
  • Аккорды и текст

Страница создана 19.03.2012
http://primanota.ru/mortification/medley-chords.htm
Привет, Гость.
Предлагаем пройти революционный курс по гитаре.
Подарок от PrimaNota.Ru, забирай!