PrimaNota.ru - самый крупный в мире бесплатный архив песенных текстов, аккордов, табулатур и нот


Mortal - Electrify - текст песни, таба, видео

Регистрация Запомнить меня
Войти через:  Facebook Google Twitter Vk Yandex Mail.ru

Mortal - Electrify - текст песни, таба, видео

Печатать
Просмотров: 159
		   Electrify
Mortal
1993 Itense Records
Frontline Music Group
Tabbed by conorlarkin@hotmail.com

Tune guitars to D This may vary because I tabbed this song using a tape (and my 
accoustic, of course) and some tape players play at different speeds, which 
changes the pitch.
The song starts out with a weird keyboard part and then some drums. And then 
Riff a   

|---------------------|-----------------|----------------------|-----------------------|
|---------------------|-----------------|----------------------|-----------------------|
|---------------------|-----------------|----------------------|-----------------------|x4
|---------------------|-----------------|----------------------|-----------------------|
|-2--4-3-----9-9-8-2--|--4-3-2--8--8-9--|--2--4-3-----9-9-8-2--|--4-3-2--9--9-10-------|
|-0--2-1-----7-7-6-0--|--2-1-0--6--6-7--|--0--2-1-----7-7-6-0--|--2-1-0--7--7--8 ------|
On the fourth time, instead of the last measure go
|------------------------------------------------------------|
|------------------------------------------------------------|
|------------------------------------------------------------|
|-------------------------2----------------------------------|
|------9--10--11--\-------2----------------------------------|and hold this not forever while 
|------7---8---9--\-------0----------------------------------|he sings.


|--------------------------|-----------------|----------------------|------------------|
|--------------------------|-----------------|----------------------|------------------|
|--------------------------|-----------------|----------------------|------------------|x2
|--------------------------|-----------------|----------------------|------------------|
|-11\--2--4-3-----9-9-8-2--|--4-3-2--8--8-9--|--2--4-3-----9-9-8-2--|--4-3-2--9--9-10--|
|-11\--0--2-1-----7-7-6-0--|--2-1-0--6--6-7--|--0--2-1-----7-7-6-0--|--2-1-0--7--7--8--|

Riff b
|-------------------------------------------|---------------------------------------|
|-------------------------------------------|---------------------------------------|
|-------------------------------------------|---------------------------------------|x4
|----------x-x-------------5---------3--3-3-|--------x-x----------5--------3--3-3---|
|--2-2-2---x-x---2---2-2---3---2-2---1--1-1-|-2-2-2--x-x--2--2-2--3---2-2--1--1-1---|
|--0-0-0---x-x---0---0-0-------0-0----------|-0-0-0--x-x--0--0-0------0-0-----------|
all things stark and bountiful
sunlight and the Rain
but every hate and every love
Staggers from the strain,                                                
Staggers from the strain.

Little Ditty a
|------------------------------------------------------|---------------------------------------|
|------------------------------------------------------|---------------------------------------|
|------------------------------------------------------|---------------------------------------|
|--------7---------------------------------------------|--8------------------------------------|
|--------7---------------------------------------------|--8------------------------------------|
|--------5---------------------------------------------|--6------------------------------------|
why do we fight fo meaning, for truth, for questions, to answers in our bones?

Riff b
|-------------------------------------------|-----------------------------------------|
|-------------------------------------------|-----------------------------------------|
|-------------------------------------------|-----------------------------------------|
|----------x-x-------------5---------3--3-3-|--------x-x----------5--------3--3-3-----|
|--2-2-2---x-x---2---2-2---3---2-2---1--1-1-|-2-2-2--x-x--2--2-2--3---2-2--1--1-1-----|
|--0-0-0---x-x---0---0-0-------0-0----------|-0-0-0--x-x--0--0-0------0-0-------------|

Riff c
|-----------------------------|------------------------------------------------------|
|-----------------------------|------------------------------------------------------|
|-----------------------------|------------------------------------------------------|
|------9---9--9-9-9--9-9--9---|----10-10-10--10-10-10--10-10--10--10-10--------------|
|------9---9--9-9-9--9-9--9---|----10-10-10--10-10-10--10-10--10--10-10--------------|
|------7---7--7-7-7--7-7--7---|-----8--8--8---8--8--8---8--8---8---8--8--------------|
     the ocean stirring                                         the thunder 
ready to roll
Little Ditty b
|--------------------------------|-------------------------------------------|
|--------------------------------|-------------------------------------------|
|--------------------------------|-------------------------------------------|
|---------------------------5----|--------------------------7----------------|
|-----2----2-2---4/5---2----3----|---2----2-2---4/5---2-----5----------------|
|-----0----0-0---2/3---0---------|---0----0-0---2/3---0----------------------|

Riff d  chorus
|------------------------------------|---------------------------------------------------|
|------------------------------------|---------------------------------------------------|
|----------------------------xxxxxx--|---------------------------------------------------|
|----------------------------xxxxxx--|---------------------------------------------------|
|---5--10--8---5-5-5---10--8-xxxxxx--|---5--10--8---5-10--11-10\9--10-9\8----------------|
|---3---8--6---3-3-3----8--6-xxxxxx--|---3---8--6---3--8---9--8\7---8-7\6----------------|
                                                                                   
God on high
                                                                                    
Electrify

|---------------------|-----------------|----------------------|-----------------------|
|---------------------|-----------------|----------------------|-----------------------|
|---------------------|-----------------|----------------------|-----------------------|x2
|---------------------|-----------------|----------------------|-----------------------|
|-2--4-3-----9-9-8-2--|--4-3-2--8--8-9--|--2--4-3-----9-9-8-2--|--4-3-2--9--9-10-------|
|-0--2-1-----7-7-6-0--|--2-1-0--6--6-7--|--0--2-1-----7-7-6-0--|--2-1-0--7--7--8-------|
On the second time, instead of the last measure go
|------------------------------------------------------------|
|------------------------------------------------------------|
|------------------------------------------------------------|
|-------------------------2----------------------------------|hold four counts
|------9--10--11--\-------2----------------------------------| 
|------7---8---9--\-------0----------------------------------|

Riff b
|-------------------------------------------|---------------------------------------|
|-------------------------------------------|---------------------------------------|
|-------------------------------------------|---------------------------------------|x4
|----------x-x-------------5---------3--3-3-|--------x-x----------5--------3--3-3---|
|--2-2-2---x-x---2---2-2---3---2-2---1--1-1-|-2-2-2--x-x--2--2-2--3---2-2--1--1-1---|
|--0-0-0---x-x---0---0-0-------0-0----------|-0-0-0--x-x--0--0-0------0-0-----------|
All things bright and wonderful
Wisdom for the wise
but every death and every life
battles our Demise

-------------------------------------------------------|---------------------------------------|
|------------------------------------------------------|---------------------------------------|
|------------------------------------------------------|---------------------------------------|
|--------7---------------------------------------------|--8------------------------------------|
|--------7---------------------------------------------|--8------------------------------------|
|--------5---------------------------------------------|--6------------------------------------|
why do we Fear the meaning, the truth, the Questions, the answeres in our bones?

Riff b
|-------------------------------------------|----------------------------------------|
|-------------------------------------------|----------------------------------------|
|-------------------------------------------|----------------------------------------|
|----------x-x-------------5---------3--3-3-|--------x-x----------5--------3--3-3----|
|--2-2-2---x-x---2---2-2---3---2-2---1--1-1-|-2-2-2--x-x--2--2-2--3---2-2--1--1-1----|
|--0-0-0---x-x---0---0-0-------0-0----------|-0-0-0--x-x--0--0-0------0-0------------|

Riff c
|-----------------------------|----------------------------------------------------|
|-----------------------------|----------------------------------------------------|
|-----------------------------|----------------------------------------------------|
|------9---9--9-9-9--9-9--9---|----10-10-10--10-10-10--10-10--10--10-10------------|
|------9---9--9-9-9--9-9--9---|----10-10-10--10-10-10--10-10--10--10-10------------|
|------7---7--7-7-7--7-7--7---|-----8--8--8---8--8--8---8--8---8---8--8------------|
the Waves are rising let lighting flash through my Soul

Little Ditty b
|--------------------------------|-------------------------------------------|
|--------------------------------|-------------------------------------------|
|--------------------------------|-------------------------------------------|
|---------------------------5----|--------------------------7----------------|
|-----2----2-2---4/5---2----3----|---2----2-2---4/5---2-----5----------------|
|-----0----0-0---2/3---0---------|---0----0-0---2/3---0----------------------|

Riff d  chorus
|------------------------------------|---------------------------------------------------|
|------------------------------------|---------------------------------------------------|
|----------------------------xxxxxx--|---------------------------------------------------|
|----------------------------xxxxxx--|---------------------------------------------------|
|---5--10--8---5-5-5---10--8-xxxxxx--|---5--10--8---5-10--11-10\9--10-9\8----------------|
|---3---8--6---3-3-3----8--6-xxxxxx--|---3---8--6---3--8---9--8\7---8-7\6----------------|
                                                                                   
God on high
                                                                                    
Electrify
                                                                                     
mortal life
                                                                                    
set on fire

Now Carmen does his thing while the bass plays, then the guitar comes.

Riff e
|--------------------------------------------------------------------------------------------|
|--------------------------------------------------------------------------------------------|
|--------------------------------------------------------------------------------------------|
|------------------2--2-2---5-5-5-----4--3---2----2-2-2--------------------------------------|x4
|------------------2--2-2---5-5-5-----4--3---2----2-2-2--------------------------------------|
|--11\--11\--11\---0--0-0---3-3-3-----2--1---0----0-0-0--------------------------------------|

|------------------------------------------------------------------------------------------|
|------------------------------------------------------------------------------------------|
|------------------------------------------------------------------------------------------|x4
|------6\4--6/7----------4--6\4--6/7\6-----------6\4--6/7----------------------------------|
|--2---4\2--4/5------2---2--4\2--4/5\4-------2---4\2--4/5-----2--2-2-2--4--5---------------|
|--0-----------------0-----------------------0----------------0--0-0-0--2--3---------------|

|-------------------------------|----------------------------------------------------------------|
|-------------------------------|----------------------------------------------------------------|
|-------------------------------|----------------------------------------------------------------|
|------9---9--9-9-9--9-9--9-----|----10----------------------------------------------------------|
|------9---9--9-9-9--9-9--9-----|----10----------------------------------------------------------|
|------7---7--7-7-7--7-7--7-----|-----8----------------------------------------------------------|
             if Life impending is living                    everyone gets out 
Alive


Little Ditty b
|--------------------------------|--------------------------------------------|
|--------------------------------|--------------------------------------------|
|--------------------------------|--------------------------------------------|
|---------------------------5----|--------------------------7---(-7-7-7\)-----|x2
|-----2----2-2---4/5---2----3----|---2----2-2---4/5---2-----5---(-5-5-5\)-----|
|-----0----0-0---2/3---0---------|---0----0-0---2/3---0-----------------------|

Riff d  chorus
|------------------------------------|-----------------------------------------------|
|------------------------------------|-----------------------------------------------|
|----------------------------xxxxxx--|-----------------------------------------------|
|----------------------------xxxxxx--|-----------------------------------------------|x2
|---5--10--8---5-5-5---10--8-xxxxxx--|---5--10--8---5-10--11-10\9--10-9\8------------|
|---3---8--6---3-3-3---8---6-xxxxxx--|---3---8---6--3--8---9--8\7---8-7\6------------|
                                                                                   
God on high
                                                                                    
Electrify
                                                                                     
mortal life
                                                                                    
set on fire
Riff a
|---------------------|-----------------|----------------------|-----------------------|
|---------------------|-----------------|----------------------|-----------------------|
|---------------------|-----------------|----------------------|-----------------------|x4
|---------------------|-----------------|----------------------|-----------------------|
|-2--4-3-----9-9-8-2--|--4-3-2--8--8-9--|--2--4-3-----9-9-8-2--|--4-3-2--9--9-10-------|
|-0--2-1-----7-7-6-0--|--2-1-0--6--6-7--|--0--2-1-----7-7-6-0--|--2-1-0--7--7--8-------|

|------------------------------------------|------------------------------------------------|
|------------------------------------------|------------------------------------------------|
|------------------------------------------|------------------------------------------------|
|--------------------------------------2---|-----------------------2------------------------|
|----9-10-11\---9-10-11\---9-10-11\----2---|-----------------------2------------------------|
|----7--8--9\---7--8--9\---7--8--9\----0---|--11\---11\---11\------0------------------------|

Cool song, from the good ol' days of Mortal. There is a super easy way to play 
Riff a, but only if you are sitting down or stationary(and who wants to play 
like that?). They probably recorded it this way, but play it my way in concert.  
The only Mortal tape I have is Fathom, and I might be able to tab some more 
songs from it. As always, you can e-mail me with comments or corrections 
[conorlarkin@hotmail.com]. I like to hear from people. God Bless you.
1 Corinthians 4:10   ( I'm a fool!)
James Donnelly
     
Добавлено: 27.09.2013
Другие материалы по этой песне:
  • Аккорды и текст

Страница создана 25.05.2012
http://primanota.ru/mortal/electrify-chords.htm
Привет, Гость.
Предлагаем пройти революционный курс по гитаре.
Подарок от PrimaNota.Ru, забирай!