PrimaNota.ru - самый крупный в мире бесплатный архив песенных текстов, аккордов, табулатур и нот


Mortal Treason - Feed On The Weak - таба, видео

Регистрация Запомнить меня
Войти через:  Facebook Google Twitter Vk Yandex Mail.ru

Mortal Treason - Feed On The Weak - таба, видео

Печатать
Просмотров: 82
Mortal Treason
Feed on the Weak

Tuning: Eb
        Bb
        Gb tuning is the same throughout the whole song 
        Db
        Ab
        Db

0:00 – 0:14

E|--------------    E|--------------|
B|--------------    B|--------------|
G|--7-7--7-7--8-(x4)G|--7-7--7-7--8-|(x4)
D|--7-7--7-7--8-    D|--7-7--7-7--8-|
A|--------------    A|--------------|
D|--------------    D|--------------|
                 ^^
            2 count pause
0:14 - 0:29

E|-------------    E|-------------|
B|-------------    B|-------------|
G|-------------    G|-------------|(x4)
D|-------------    D|-------------|
A|-0-0-0-00000-(x4)A|-00000-0-0-0-| palm muted
E|-0-0-0-00000-    E|-00000-0-0-0-|

0:29 - 0:42

E|-------------------------------------------------------|p
B|-------------------------------------------------------|a
G|-------------------------------------------------------|l
D|-------------------------------------------------------|m
A|-------------------------------------------------------|m 
D|-0-0-0-0-0-0-0-0-0-0-0-0-0-0-0-0-0-0-0-0-0-0-0-0-0-0-0-|t

0:42 - 1:07

E|--------------------------------------|
B|--------------------------------------| sorry…not sure
G|--------------------------------------| of the other 
D|--------------------------------------| guitar yet 
A|-0-0-0---0-0-0---0-0-0--0-0-0---0-0-0-| 
D|-0-0-0---0-0-0---0-0-0--0-0-0---0-0-0-|(x4)

1:07 - 1:14

E|--------------------------------------|
B|--------------------------------------|
G|--------------------------------------| 
D|--------------------------------------| 
A|-999988999988888888-------------------|(x2)
E|--------------------------------------|

E|--------------------------------------|
B|--------------------------------------| 
G|--------------------------------------|
D|--------------------------------------|
A|--------------------------------------|(x2)
D|-999988999988888888-------------------|

1:14 - 1:28

E|--------------------| these are 1's and opens
B|--------------------|
G|--------------------|both guitars
D|--------------------|
A|--------------------| first guitar plays first four
D|-111100111100000000-| times…then the second guitar
                        Comes in and plays 4 more together

1:28 - 1:31

E|-------------------------|
B|-------------------------|
G|-------------------------| this is palm muted
D|-------------------------|
A|-------------------------|
D|-3-2-0-3-2-0-3-2-0-3-2-0-|

1:31 - 1:35

E|---------------------------------|
B|---------------------------------|
G|---------------------------------|
D|---------------------------------|
A|-000-000-000-000-000-000-000-000-|
D|-000-000-000-000-000-000-000-000-|



Next page
1:35 - 1:39

E|-------------------------|
B|-------------------------|
G|-------------------------|
D|-------------------------|
A|-------------------------|
D|-3-2-0-3-2-0-3-2-0-3-2-0-|

1:39 - 1:42

E|---------------------------------|
B|---------------------------------|
G|---------------------------------|
D|---------------------------------|
A|-000-000-000-000-000-000-000-000-|
D|-000-000-000-000-000-000-000-000-|

1:42 - 1:46

E|-------------------------|
B|-------------------------|
G|-------------------------|
D|-------------------------|
A|-------------------------|
D|-3-2-0-3-2-0-3-2-0-3-2-0-|

1:46 - 1:49

E|---------------------------------|
B|---------------------------------|
G|---------------------------------|
D|---------------------------------|
A|-000-000-000-000-000-000-000-000-|
D|-000-000-000-000-000-000-000-000-|

1:49 - 1:51 1\2

E|-------------------------|
B|-------------------------|
G|-------------------------|
D|-------------------------|
A|-------------------------|
D|-3-2-0-3-2-0-3-2-0-3-2-0-|

Next 
page
1:53 - 2:09

E|----------------------|
B|----------------------|
G|----------------------|(x5)
D|----------------------|
A|-0-0-0--0-0--0--0-0-0-| palm mute
D|-0-0-0--0-0--0--0-0-0-|

2:09 - 2:22 1\2

E|-------------------|
B|-------------------|
G|-------------------|(x4)
D|-------------------|
A|-00000-000-0-0-000-|palm mute
D|-00000-000-0-0-000-|

2:23 - 3:17

E|-----------------|Repeat 12 times
B|-----------------|on the ninth time
G|-----------------|use distortion for 
D|-8-----7-----7h8-|the next 3 times
A|---0-----0-------|
D|-----0-----0-----|

3:17 - 3:43

E|-----------------------------------|
B|-----------------------------------|
G|-----------------------------------|
D|-----------------------------------|(x8)
A|-777777666666666664444446666666666-|
D|-777777666666666664444446666666666-|

3:43 - 3:54           3:54 - 4:06

E|--------------|    E|-----------------|    E|-----------|
B|--------------|    B|-----------------|    B|-----------|
G|--------------|    G|-----------------|    G|-----------|
D|--------------|(x4)D|-----------------|(x4)D|-----------|
A|-0-0--0-0-0-0-|    A|-1--0-0--0-0-0-0-|    A|-1--0------|
D|-0-0--0-0-0-0-|    D|-1--0-0--0-0-0-0-|    D|-1--0------|

Next 
Page
4:10 - 4:18

E|--------------------------------------------------------|
B|--------------------------------------------------------|
G|--------------------------------------------------------|
D|--------------------------------------------------------|
A|-000000000000000000000000000000000000000000000000000000-|
D|-000000000000000000000000000000000000000000000000000000-|

4:18 - 4:38

E|
B|
G|
D|
A|-555555777777888888777777555555777777101010101010888888-|
D|-555555777777888888777777555555777777101010101010888888-|
^^^^^^^^^^
Repeat this three times

4:38 - 4:47

E|------------|
B|------------|
G|------------|(x4)
D|------------|
A|-0-7-8--5-7-|
D|-0-7-8--5-7-|

4:47 - the end

E|-----------------|
B|-----------------|
G|-----------------|
D|-----------------|(x4)
A|-0--0-0--0-0-1-0-|
D|-0--0-0--0-0-1-0-|


                                      
Добавлено: 21.06.2012
Другие материалы по этой песне:
  • Аккорды и текст

Страница создана 21.06.2012
http://primanota.ru/mortal-treason/feed-on-the-weak-chords.htm
Привет, Гость.
Предлагаем пройти революционный курс по гитаре.
Подарок от PrimaNota.Ru, забирай!