PrimaNota.ru - самый крупный в мире бесплатный архив песенных текстов, аккордов, табулатур и нот


Mortal Decay - Recollections - таба, видео

Регистрация Запомнить меня
Войти через:  Facebook Google Twitter Vk Yandex Mail.ru

Mortal Decay - Recollections - таба, видео

Печатать
Просмотров: 71
RECOLLECTIONS
                           As recorded by Mortal Decay
                         (From the 2002 Album FORENSIC)



Gtr I (B E A D G B E) - 'Joe Gordon'
Gtr II (B E A D G B E) - 'John Hartman'
Gtr III (B E A D G B E) - 'Lead Guitar 1'
Gtr IV (B E A D G B E) - 'Lead Guitar 2'
Gtr V (B E A D G B E) - 'Clean Guitar'

 Intro (0:00)
  Q=150
 3/4
  Gtrs I, II
  H.        +H.        +H.        +H.
|---------|----------|----------|--------|
|---------|----------|----------|--------|
|---------|----------|----------|--------|
|---------|----------|----------|--------|
|-4-------|-(4)------|-(4)------|-(4)----|
|-4-------|-(4)------|-(4)------|-(4)----|
|-2-------|-(2)------|-(2)------|-(2)----|


  Gtrs I, II
   >
  +H.        +H.        +H.
|----------|----------|--------|
|----------|----------|--------|
|----------|----------|--------|
|----------|----------|--------|
|-(4)------|-(4)------|-(4)----|
|-(4)------|-(4)------|-(4)----|
|-(2)------|-(2)------|-(2)----|
|
| Gtr V
|  H          H          H
|----------|----------|--------|
|----------|----------|--------|
|----------|----------|--------|
|----------|----------|--------|
|----------|----------|--------|
|----------|----------|--------|
|----------|----------|--------|


  +H.             +H              H             H
|---------------|---------------|-------------|--------------|
|---------------|---------------|-------------|--------------|
|---------------|---------------|-------------|--------------|
|---------------|---------------|-------------|--------------|
|-(4)-----------|-(4)-----------|-------------|--------------|
|-(4)-----------|-(4)-----------|-------------|--------------|
|-(2)-----------|-(2)-----------|-------------|--------------|
|
| Gtr V
|  E  E E E E E    E  E E E E E   E E E E E E   E E E E E E
|-----1-----0-1-|-----1-----0-1-|---1-----0-1-|---1-----0-1--|
|-------3-------|-------3-------|-----3-------|-----3--------|
|---------------|--3------3-----|-0-----0-----|-2-----2------|
|--0------0-----|---------------|-------------|--------------|
|---------------|---------------|-------------|--------------|
|---------------|---------------|-------------|--------------|
|---------------|---------------|-------------|--------------|


  Gtr V
  E E E E E E   E E E E E E   E E E E E E   E E E E E E
|---1-----0-1-|---1-----0-1-|---1-----0-1-|---1-----0-1--|
|-----3-------|-----3-------|-----3-------|-----3--------|
|-------------|-3-----3-----|-0-----0-----|-2-----2------|
|-0-----0-----|-------------|-------------|--------------|
|-------------|-------------|-------------|--------------|
|-------------|-------------|-------------|--------------|
|-------------|-------------|-------------|--------------|


  Gtr V
  E E E E E E   E E E E E E   E E E E E E   E E E E E E
|---1-----0-1-|---1-----0-1-|---1-----1---|---1-----1----|
|-----3-------|-----3-------|-----3-----3-|-----3-----3--|
|-------------|-0-----0-----|-------------|--------------|
|-3-----3-----|-------------|-2-----3-----|-2-----0------|
|-------------|-------------|-------------|--------------|
|-------------|-------------|-------------|--------------|
|-------------|-------------|-------------|--------------|


 Solo 1 (0:21)
  Gtr V
   E  E E E E E    E E  E    E   E  E   E  E E E E E    E  E E  E   E E
|-----------0---|---------------------|----------0---|------------------|
|-----3-------3-|----3-----------3----|----3-------3-|-----3--------3---|
|-------4-------|-------4-----------4-|------4-------|-------4--------4-|
|---------------|--0---------0--------|--------------|----------0-------|
|--2------2-----|---------------------|-1------1-----|--1---------------|
|---------------|---------------------|--------------|------------------|
|---------------|---------------------|--------------|------------------|
|
| Gtr III
|  ~~~                                  ~~~~~~~~~~~~~~~~~~~
|  H.              Q    Q       +Q      H.             +Q    E  S S E E
|--7------------|-10---10b11r==(10)---|-6------------|-(6)---6--7p6-4-6-|
|---------------|---------------------|--------------|------------------|
|---------------|---------------------|--------------|------------------|
|---------------|---------------------|--------------|------------------|
|---------------|---------------------|--------------|------------------|
|---------------|---------------------|--------------|------------------|
|---------------|---------------------|--------------|------------------|
|
| Gtr IV
|  ~~~                                  ~~~~~~~~~~~~~~~~~~~
|  H.              Q    Q        Q      H.             +Q    E  S S E E
|-10------------|-13---13b14r===13----|-9------------|-(9)---9-10p9-7-9-|
|---------------|---------------------|--------------|------------------|
|---------------|---------------------|--------------|------------------|
|---------------|---------------------|--------------|------------------|
|---------------|---------------------|--------------|------------------|
|---------------|---------------------|--------------|------------------|
|---------------|---------------------|--------------|------------------|


  Gtr V
   E  E E E E E    E E  E    E   E  E   E  E E E E E    E  E E  E   E E
|-----------0---|---------------------|----------0---|------------------|
|-----3-------3-|----3-----------3----|----3-------3-|-----3--------3---|
|-------4-------|-------4-----------4-|------4-------|-------4--------4-|
|---------------|--0---------0--------|--------------|----------0-------|
|--2------2-----|---------------------|-1------1-----|--1---------------|
|---------------|---------------------|--------------|------------------|
|---------------|---------------------|--------------|------------------|
|
| Gtr III
|  ~~~                                  ~~~~~~~~~~~~~~~~~~~
|  H.              Q    Q       +Q      H.             +Q    E  S S E E
|--7------------|-10---10b11r==(10)---|-6------------|-(6)---6--7p6-4-6-|
|---------------|---------------------|--------------|------------------|
|---------------|---------------------|--------------|------------------|
|---------------|---------------------|--------------|------------------|
|---------------|---------------------|--------------|------------------|
|---------------|---------------------|--------------|------------------|
|---------------|---------------------|--------------|------------------|
|
| Gtr IV
|  ~~~                                  ~~~~~~~~~~~~~~~~~~~
|  H.              Q    Q        Q      H.             +Q    E  S S E E
|-10------------|-13---13b14r===13----|-9------------|-(9)---9-10p9-7-9-|
|---------------|---------------------|--------------|------------------|
|---------------|---------------------|--------------|------------------|
|---------------|---------------------|--------------|------------------|
|---------------|---------------------|--------------|------------------|
|---------------|---------------------|--------------|------------------|
|---------------|---------------------|--------------|------------------|


  Gtr V
   E  E E E E E    E E E E   E   E    E  E E E E  E    E E E  E   E E
|-----------0---|------------------|-----------0-----|----------------|
|-----3-------3-|----3-------3-----|-----3--------3--|---3--------3---|
|-------4-------|------4---------4-|-------4---------|-----4--------4-|
|---------------|--0-----0---------|-----------------|--------0-------|
|--2------2-----|------------------|--1------1-------|-1--------------|
|---------------|------------------|-----------------|----------------|
|---------------|------------------|-----------------|----------------|
|
| Gtr III
|  ~~~                                ~~~              ~
|  H.              H        +E   E    Q.          Q.   Q   E  S S E E
|--7------------|--9--------(9)-10-|--9-----------7--|-6---6--7p6-4-6-|
|---------------|------------------|-----------------|----------------|
|---------------|------------------|-----------------|----------------|
|---------------|------------------|-----------------|----------------|
|---------------|------------------|-----------------|----------------|
|---------------|------------------|-----------------|----------------|
|---------------|------------------|-----------------|----------------|
|
| Gtr IV
|  ~~~                                ~~~              ~
|  H.              H        +E   E    Q.          Q.   Q   E  S S E E
|-10------------|-12-------(12)-13-|-12----------10--|-9---9-10p9-7-9-|
|---------------|------------------|-----------------|----------------|
|---------------|------------------|-----------------|----------------|
|---------------|------------------|-----------------|----------------|
|---------------|------------------|-----------------|----------------|
|---------------|------------------|-----------------|----------------|
|---------------|------------------|-----------------|----------------|


  Gtr V
   E  E E E E E    E E  E    E   E  E   E  E E E E E    E  E E  E   E E
|-----------0---|---------------------|----------0---|------------------|
|-----3-------3-|----3-----------3----|----3-------3-|-----3--------3---|
|-------4-------|-------4-----------4-|------4-------|-------4--------4-|
|---------------|--0---------0--------|--------------|--0---------------|
|--2------2-----|---------------------|-1------1-----|----------1-------|
|---------------|---------------------|--------------|------------------|
|---------------|---------------------|--------------|------------------|
|
| Gtr III
|  ~~~                                  ~~~~~~~~~~~~~~~~~~~
|  H.              Q    Q       +Q      H.             +Q    E  S S E E
|--7------------|-10---10b11r==(10)---|-6------------|-(6)---6--7p6-4-6-|
|---------------|---------------------|--------------|------------------|
|---------------|---------------------|--------------|------------------|
|---------------|---------------------|--------------|------------------|
|---------------|---------------------|--------------|------------------|
|---------------|---------------------|--------------|------------------|
|---------------|---------------------|--------------|------------------|
|
| Gtr IV
|  ~~~                                  ~~~~~~~~~~~~~~~~~~~
|  H.              Q    Q        Q      H.             +Q    E  S S E E
|-10------------|-13---13b14r===13----|-9------------|-(9)---9-10p9-7-9-|
|---------------|---------------------|--------------|------------------|
|---------------|---------------------|--------------|------------------|
|---------------|---------------------|--------------|------------------|
|---------------|---------------------|--------------|------------------|
|---------------|---------------------|--------------|------------------|
|---------------|---------------------|--------------|------------------|


 Interlude (0:41)
  Gtr V
   E  E E E E E     E  E E E E E   E  E E E E E   E  E E E E E
|-----1-----0-1-|------1-----0-1-|----1-----0-1-|----1-----0-1--|
|-------3-------|--------3-------|------3-------|------3--------|
|---------------|---3------3-----|-0------0-----|-2------2------|
|--0------0-----|----------------|--------------|---------------|
|---------------|----------------|--------------|---------------|
|---------------|----------------|--------------|---------------|
|---------------|----------------|--------------|---------------|
|
| Gtr III
|                   >
|  H.              +H.             H.             H.
|--9------------|--(9)-----------|--------------|---------------|
|---------------|----------------|--------------|---------------|
|---------------|----------------|--------------|---------------|
|---------------|----------------|--------------|---------------|
|---------------|----------------|--------------|---------------|
|---------------|----------------|--------------|---------------|
|---------------|----------------|--------------|---------------|
|
| Gtr IV
|                   >
|  H.              +H.             H.             H.
|-12------------|-(12)-----------|--------------|---------------|
|---------------|----------------|--------------|---------------|
|---------------|----------------|--------------|---------------|
|---------------|----------------|--------------|---------------|
|---------------|----------------|--------------|---------------|
|---------------|----------------|--------------|---------------|
|---------------|----------------|--------------|---------------|


  Gtr V
  E E E E E E   E E E E E E   E E E E E E   E E E E E E
|---1-----0-1-|---1-----0-1-|---1-----0-1-|---1-----0-1--|
|-----3-------|-----3-------|-----3-------|-----3--------|
|-------------|-3-----3-----|-0-----0-----|-2-----2------|
|-0-----0-----|-------------|-------------|--------------|
|-------------|-------------|-------------|--------------|
|-------------|-------------|-------------|--------------|
|-------------|-------------|-------------|--------------|


  Gtr V
  E E E E E E   E E E E E E   E E E E E E   E E E E E E
|---1-----0-1-|---1-----0-1-|---1-----1---|---1-----1----|
|-----3-------|-----3-------|-----3-----3-|-----3-----3--|
|-------------|-0-----0-----|-------------|--------------|
|-3-----3-----|-------------|-2-----3-----|-2-----0------|
|-------------|-------------|-------------|--------------|
|-------------|-------------|-------------|--------------|
|-------------|-------------|-------------|--------------|


 Solo 2 (0:56)
  Gtr V
  E   E   E E  E E    E   E   E E  E E   E   E   E E  E E   E   E   E E E E
|--------------0---|-------------------|--------------0---|-------------------|
|-----3----------3-|------3--------3---|-----3----------3-|-----3-------3-----|
|---------4--------|----------4------4-|---------4--------|---------4-----4---|
|------------------|--0---------0------|------------------|-----------0-------|
|-2---------2------|-------------------|-1---------1------|-1-----------------|
|------------------|-------------------|------------------|-------------------|
|------------------|-------------------|------------------|-------------------|
|
| Gtr III
| E   S S E E  E E    E   S S E E  E E   E   S S E E  E E   E   S S E E E E
|-7----------------|--7----------------|-6----------------|-6-----------------|
|----10-8-7-8--7p0-|-----10-8-7-8--7p0-|----10-8-6-8--6-5-|----10-8-6-8-6-5---|
|------------------|-------------------|------------------|-------------------|
|------------------|-------------------|------------------|-------------------|
|------------------|-------------------|------------------|-------------------|
|------------------|-------------------|------------------|-------------------|
|------------------|-------------------|------------------|-------------------|
|
| Gtr IV
|                                                           ~~
| Q.        Q.        Q.        Q.       Q.        Q.       H.
|------------------|-------------------|------------------|-------------------|
|------------------|-------------------|------------------|-------------------|
|------------------|-------------------|------------------|-------------------|
|------------------|-------------------|------------------|-------------------|
|-2---------2------|-/5---------2------|-1---------1------|-1-----------------|
|------------------|-------------------|------------------|-------------------|
|------------------|-------------------|------------------|-------------------|


  Gtr V
  E   E   E E  E E    E   E   E E  E E   E   E   E E  E E   E   E   E E E E
|--------------0---|-------------------|--------------0---|------------------|
|-----3----------3-|------3--------3---|-----3----------3-|-----3-------3----|
|---------4--------|----------4------4-|---------4--------|---------4-----4--|
|------------------|--0---------0------|------------------|-----------0------|
|-2---------2------|-------------------|-1---------1------|-1----------------|
|------------------|-------------------|------------------|------------------|
|------------------|-------------------|------------------|------------------|
|
| Gtr III
| E   S S E E  E E    E   S S E E  E E   E   S S E E  E E   E   S S E E E E
|-7----------------|--7----------------|-6----------------|-6----------------|
|----10-8-7-8--7p0-|-----10-8-7-8--7p0-|----10-8-6-8--6-5-|----10-8-6-8-6-5--|
|------------------|-------------------|------------------|------------------|
|------------------|-------------------|------------------|------------------|
|------------------|-------------------|------------------|------------------|
|------------------|-------------------|------------------|------------------|
|------------------|-------------------|------------------|------------------|
|
| Gtr IV
| <
|                                                           ~~
| Q.        Q.        Q.        Q.       Q.        Q.       H.
|------------------|-------------------|------------------|------------------|
|------------------|-------------------|------------------|------------------|
|------------------|-------------------|------------------|------------------|
|------------------|-------------------|------------------|------------------|
|-2---------2------|-/5---------2------|-1---------1------|-1----------------|
|------------------|-------------------|------------------|------------------|
|------------------|-------------------|------------------|------------------|


  Gtr V
  E   E   E E  E E    E   E   E E  E E   E   E   E E  E E   E   E   E E E E
|--------------0---|-------------------|--------------0---|------------------|
|-----3----------3-|------3--------3---|-----3----------3-|-----3-------3----|
|---------4--------|----------4------4-|---------4--------|---------4-----4--|
|------------------|--0---------0------|------------------|-----------0------|
|-2---------2------|-------------------|-1---------1------|-1----------------|
|------------------|-------------------|------------------|------------------|
|------------------|-------------------|------------------|------------------|
|
| Gtr III
| E   S S E E  E E    E   S S E E  E E   E   S S E E  E E   E   S S E E E E
|-7----------------|--7----------------|-6----------------|-6----------------|
|----10-8-7-8--7p0-|-----10-8-7-8--7p0-|----10-8-6-8--6-5-|----10-8-6-8-6-5--|
|------------------|-------------------|------------------|------------------|
|------------------|-------------------|------------------|------------------|
|------------------|-------------------|------------------|------------------|
|------------------|-------------------|------------------|------------------|
|------------------|-------------------|------------------|------------------|
|
| Gtr IV
|                                                           ~~
| Q.        Q.        Q.        Q.       Q.        Q.       H.
|------------------|-------------------|------------------|------------------|
|------------------|-------------------|------------------|------------------|
|------------------|-------------------|------------------|------------------|
|------------------|-------------------|------------------|------------------|
|-2---------2------|-/5---------2------|-1---------1------|-1----------------|
|------------------|-------------------|------------------|------------------|
|------------------|-------------------|------------------|------------------|


  Gtr V
  E   E   E E  E E    E   E   E E  E E   E   E   E E  E E   E  E     E E E E
|--------------0---|-------------------|--------------0---|-------------------|
|-----3----------3-|------3--------3---|-----3----------3-|----3---------3----|
|---------4--------|----------4------4-|---------4--------|----------4-----4--|
|------------------|--0---------0------|------------------|-0-----------------|
|-2---------2------|-------------------|-1---------1------|------------1------|
|------------------|-------------------|------------------|-------------------|
|------------------|-------------------|------------------|-------------------|
|
| Gtr III
| E   S S E E  E E    E   S S E E  E E   E   S S E E  E E   E  S  S  E E E E
|-7----------------|--7----------------|-6----------------|-6--------------7--|
|----10-8-7-8--7p0-|-----10-8-7-8--7p0-|----10-8-6-8--6-5-|---10--8--6-8-6----|
|------------------|-------------------|------------------|-------------------|
|------------------|-------------------|------------------|-------------------|
|------------------|-------------------|------------------|-------------------|
|------------------|-------------------|------------------|-------------------|
|------------------|-------------------|------------------|-------------------|
|
| Gtr IV
|                                                           ~~~~~~~~~
| Q.        Q.        Q.        Q.       Q.        Q.       H    +E        E
|------------------|-------------------|------------------|-------------------|
|------------------|-------------------|------------------|-------------------|
|------------------|-------------------|------------------|-------------------|
|------------------|-------------------|------------------|-------------------|
|-2---------2------|-/5---------2------|-1---------1------|-1----(1)-------1--|
|------------------|-------------------|------------------|-------------------|
|------------------|-------------------|------------------|-------------------|


 Outro (1:16)
           H.=H         Q=120
  Gtr V
    E  E E E E E     E  E +H       +H.        +H.
|------1-----0-1-|---------------|----------|-----------*|
|--------3-------|---3-----------|----------|-----------*|
|----------------|---------------|----------|-----------*|
|---0------0-----|------0-(0)----|-(0)------|-(0)-------*|
|----------------|---------------|----------|-----------*|
|----------------|---------------|----------|-----------*|
|----------------|---------------|----------|-----------*|
|
| Gtr III
|   >
|   H.              +H.             H.            H.
|-/13------------|-(13)----------|----------|-----------*|
|----------------|---------------|----------|-----------*|
|----------------|---------------|----------|-----------*|
|----------------|---------------|----------|-----------*|
|----------------|---------------|----------|-----------*|
|----------------|---------------|----------|-----------*|
|----------------|---------------|----------|-----------*|
|
| Gtr IV
|   >
|   H.              +H.             H.            H.
|----------------|---------------|----------|-----------*|
|----------------|---------------|----------|-----------*|
|----------------|---------------|----------|-----------*|
|----------------|---------------|----------|-----------*|
|--/8------------|--(8)----------|----------|-----------*|
|----------------|---------------|----------|-----------*|
|----------------|---------------|----------|-----------*|

End.
Добавлено: 31.08.2013
Другие материалы по этой песне:

Страница создана 31.08.2013
http://primanota.ru/mortal-decay/recollections-chords.htm
Привет, Гость.
Предлагаем пройти революционный курс по гитаре.
Подарок от PrimaNota.Ru, забирай!