PrimaNota.ru - самый крупный в мире бесплатный архив песенных текстов, аккордов, табулатур и нот


Morrissey - Tony The Pony - текст песни, бас-таба, видео

Регистрация Запомнить меня
Войти через:  Facebook Google Twitter Vk Yandex Mail.ru

Morrissey - Tony The Pony - текст песни, бас-таба, видео

Печатать
Просмотров: 188
Новый альбом группы 'Черный Кузнец' по культовому сериалу 'Сверхъестественное'!
Tony the Pony
Morrissey
Bass Tab
Bassist: Mark Bedford

180BPM, 4/4

Intro

||-------------|------------|------------|-------------||
||o------------|------------|------------|------------o||
||o-3-------1--|-3-------1--|-1-------1--|-1-------1--o||
||------3------|-----3------|-----3------|-----3-------||

Verse
                                                       4x
||-------------|------------|------------|-------------||
||o------------|------------|------------|------------o||
||o-3-------1--|-3-------1--|-1-------1--|-1-------1--o||
||------3------|-----3------|-----3------|-----3-------||

||------------|------------|-----------|-------------||
||o-1---1-----|-1---1------|-----------|------------o||
||o-----------|---------1--|-----------|---------1--o||
||------------|------------|-4---4-----|-4---4-------||

Verse
                                                       4x
||-------------|------------|------------|-------------||
||o------------|------------|------------|------------o||
||o-3-------1--|-3-------1--|-1-------1--|-1-------1--o||
||------3------|-----3------|-----3------|-----3-------||

||------------|------------|-----------|--------------|| *First time only
||o-1---1-----|-1---1------|-----------|-------------o||
||o-----------|---------1--|-----------|---------1*--o||
||------------|------------|-4---4-----|-4---4--------||

Bridge

|-----------|------------|-----------|-----------|
|-----------|------------|-----------|-----------|
|-----------|---------1--|-2---2-----|-2---2-----|
|-1---1-----|-1---1------|-----------|-----------|

|-----------|------------|-----------|------------|
|-----------|------------|-----------|------------|
|-1---1-----|-1---1------|-----------|-1---1---3--|
|-----------|---------1--|-3---3-----|------------|

|-----------|-----------|-----------|-----------|
|-----------|-----------|-----------|-----------|
|-----------|-----------|-2---2-----|-2---2-----|
|-1---1-----|-1---1-----|-----------|-----------|

|------------|-3---3------|-3---3------|------------|
|---------3--|---------3--|---------3--|------------|
|-1---1------|------------|------------|-1---1---2--|
|------------|------------|------------|------------|

Verse
                                                           4x
||--------------|-------------|-------------|--------------||
||o-------------|-------------|-------------|-------------o||
||o-3--------1--|-3--------1--|-1--------1--|-1--------1--o||
||------3--x----|-----3--x----|-----3--x----|-----3--x-----||

||------------|------------|-----------|-------------||
||o-1---1-----|-1---1------|-----------|------------o||
||o-----------|---------1--|-----------|---------1--o||
||------------|------------|-4---4-----|-4---4-------||

Verse
                                                       4x
||-------------|------------|------------|-------------||
||o------------|------------|------------|------------o||
||o-3-------1--|-3-------1--|-1-------1--|-1-------1--o||
||------3------|-----3------|-----3------|-----3-------||

||------------|------------|-----------|-------------||
||o-1---1-----|-1---1------|-----------|------------o||
||o-----------|---------1--|-----------|---------1--o||
||------------|------------|-4---4-----|-4---4-------||

Bridge

|-----------|-----------|-----------|-----------|
|-----------|-----------|-----------|-----------|
|-----------|-----------|-2---2-----|-2---2-----|
|-1---1-----|-1---1-----|-----------|-----------|

|-----------|------------|-----------|------------|
|-----------|------------|-----------|------------|
|-1---1-----|-1---1------|-----------|-1---1---3--|
|-----------|---------1--|-3---3-----|------------|

|-----------|-----------|-----------|-----------|
|-----------|-----------|-----------|-----------|
|-----------|-----------|-2---2-----|-2---2-----|
|-1---1-----|-1---1-----|-----------|-----------|

|------------|-3---3------|------------|-3-3-3-3-3-3----|
|---------3--|---------3--|---------3--|----------------|
|-1---1------|------------|-1---1------|-------------2--|
|------------|------------|------------|----------------|

Verse
                                                       4x
||-------------|------------|------------|-------------||
||o------------|------------|------------|------------o||
||o-3-------1--|-3-------1--|-1-------1--|-1-------1--o||
||------3------|-----3------|-----3------|-----3-------||

||------------|------------|-----------|-------------||
||o-1---1-----|-1---1------|-----------|------------o||
||o-----------|---------1--|-----------|---------1--o||
||------------|------------|-4---4-----|-4---4-------||

Ending

||-------------|------------|------------|-------------||
||o------------|------------|------------|------------o||
||o-3-------1--|-3-------1--|-1-------1--|-1-------1--o||
||------3------|-----3------|-----3------|-----3-------|| til fade
Добавлено: 03.05.2012
Другие материалы по этой песне:
  • Аккорды и текст

Страница создана 03.05.2012
http://primanota.ru/morrissey/tony-the-pony-chords.htm
Привет, Гость.
Предлагаем пройти революционный курс по гитаре.
Подарок от PrimaNota.Ru, забирай!