PrimaNota.ru - самый крупный в мире бесплатный архив песенных текстов, аккордов, табулатур и нот


Morrissey - I Will See You In Far Off Places - аккорды и текст, видео

Регистрация Запомнить меня
Войти через:  Facebook Google Twitter Vk Yandex Mail.ru

Morrissey - I Will See You In Far Off Places - аккорды и текст, видео

Печатать
Просмотров: 57
I Will See You In Far Off Places
Morrissey
I tried tabbing the intro (see bottom) for different guitar and bass parts. Each part is simple enough 
which makes the song sound great. However I'm not sure about my bass effort and I found the timings 
quite tricky to show on a tab. Please feel free to improve this or remove.

Intro
E    E    Dm Dsus Dm | 
1    2     3      4  | x4 

E
Nobody knows what human life is, why we come, why we go
E                                A         A
So why then do I know... I will see you
         D     C             E
I will see you-ou in far off places?

E    E    Dm Dsus Dm x4 

E
The heart knows why I grieve
E
And yes one day I will close my eyes forever
           A         A
But I will see you
         D      C            E
I will see you-ou in far off places


E    E    Dm Dsus Dm x4 

E
It's so easy for us two to sit together
E
But it's so hard for our hearts to combine
        A      B    
And why?  And why?
C    D                     E
Why? Why? Why? Why? Why? Why?

E    E    Dm Dsus Dm x4 

E
Destiny for some is to save lives
E
But destiny for some is to end lives
                A      A
But there is no end
            D       C            E
And I will see you-ou in far off places

E    E    Dm Dsus Dm x4 

E
If your god bestows protection upon you
E
And if the USA doesn't bomb you
                  A
I believe I will see you somewhere safe
                    D             C                     E
Looking to the camera... messing around... and pulling faces

Yeah da da da
E    E    Dm Dsus Dm x16 


Intro               
Guitar 1
e|7~7~-------7~-7~7~-------7~-7~7~--------7~--7~7~-------7~--7~7~-------7~--7~7~-------7~-----|
B|----10-9-10-------10-9-10--------10-9-10--------10-9-10--------10-9-10--------10-9-10-------|
G|--------------------------------------------------------------------------------------------|
D|--------------------------------------------------------------------------------------------|
A|--------------------------------------------------------------------------------------------|
E|--------------------------------------------------------------------------------------------|

Guitar 2
   Hold with vibrato and get louder.........
e|--------------------------------------1-3-1-----------1-3-1----------1-3-1----------1-3-1---|
B|-5~~~~~~~~~~~~~~~~~~~~~~~~~~~~~~~~~~~~------5~~~~~~~~~~-----5~~~~~~~~~-----5~~~~~~~~~-----5~|
G|--------------------------------------------------------------------------------------------|
D|--------------------------------------------------------------------------------------------|
A|--------------------------------------------------------------------------------------------|
E|--------------------------------------------------------------------------------------------|

Bass                         
G|--------------------------------------------------------------------------------------------|
D|----------------------------2-0-----------2-2-0-----------2-2-0-----------2-2-0-----------2-|
A|-------------------------------2-0-----0-2-----2-0-----0-2-----2-0-----0-2-----2-0-----0-2--|
E|----------------------------------3-0-3-----------3-0-3-----------3-0-3-----------3-0-3-----|
Добавлено: 19.05.2016
Другие материалы по этой песне:
  • Аккорды и текст

Страница создана 30.05.2012
http://primanota.ru/morrissey/i-will-see-you-in-far-off-places-chords.htm
Привет, Гость.
Предлагаем пройти революционный курс по гитаре.
Подарок от PrimaNota.Ru, забирай!