PrimaNota.ru - самый крупный в мире бесплатный архив песенных текстов, аккордов, табулатур и нот


Morrissey - How Can Anybody Possibly Know How I Feel - таба, видео

Регистрация Запомнить меня
Войти через:  Facebook Google Twitter Vk Yandex Mail.ru

Morrissey - How Can Anybody Possibly Know How I Feel - таба, видео

Печатать
Просмотров: 144
Уроки эстрадного вокала в Санкт-Петербурге
Авторы музыки: Morrissey, Alain Whyte

Song: How Can Anybody Possibly Know How I Feel?
Artist: Morrissey
Album: You Are The Quarry
Tabbed by: Trifonas
E-mail: trifwnas@hotmail.gr

Tuning:Standard EADGBe (Low to High)

Here we go! This tune has two distorted guitars.
I will tab them both but they are almost the same
(the second is one octave lower with more distortion than the first one
and at some points the second doesn't play a thing,
you'll see what I mean).

Guitar 1 (Basic Riff)
e|----3---3---3---3-----0-5-3---3-5-3------|
B|---3-3-3-3-3-3-4-4---2-------4-----4-----|
G|--0---2---3---3-----2-------5------------|
D|---------------------------5-------------|
A|-----------------------------------------|
E|-----------------------------------------|

Guitar 2 (Basic Riff)
e|---------------------------5p3------5p3--|
B|--------------------------2--------4---4-|
G|-------------------3-----2--------3------|
D|----5----5----5---5-5---2--------5-------|
A|---5----5----5-5-6-----0------0h3--------|
E|--3--3-5--5-6----------------------------|

Verses - Only Guitar 1
e|----7-5-7-----8-------9-----8------------|
B|---0---------8-8-----8-8---8-12-10-8-----|
G|--0------0-h8---8-0h9---9p8--------------|
D|-----------------------------------------|
A|-----------------------------------------|
E|-----------------------------------------|

Pre Chorus (Guitar 1)
The chords are Gm A# C D# D (All barred)
e|--3-x-3-x-3-x-3-/6-x-6-x-6-x-6-x-/8-x-8-x-8-x-8-/11\10--------|
B|--3-x-3-x-3-x-3-/6-x-6-x-6-x-6-x-/8-x-8-x-8-x-8-/11\10--------|
G|--3-x-3-x-3-x-3-/7-x-7-x-7-x-7-x-/9-x-9-x-9-x-9-/12\11--------|
D|--5-x-5-x-5-x-5-/8-x-8-x-8-x-8-x-/10-x-10-x-10-x-10-/13\12----|
A|--5-x-5-x-5-x-5-/8-x-8-x-8-x-8-x-/10-x-10-x-10-x-10-/13\12----|
E|--3-x-3-x-3-x-3-/6-x-6-x-6-x-6-x-/8-x-8-x-8-x-8-/11\10--------|

Pre Chorus (Guitar 2)
e|---------------------------|
B|---------------------------|
G|----3----7----9----12------|
D|----5----8----10----13-----|
A|--x-5--x-8--x-10--x-13-----|
E|--x-3--x-6--x-8--x-11------|

Bridge (Guitar 1) - strum these chords
e|------------------6p5-3------0-----------|
B|--4-----4--------2-----3----2------------|
G|--5--3--5--3----2------3---2---7-6-5-3---|
D|--5--5--5--5---2-------5--2----7-6-5-3---|
A|--3--5--3--5--0--------5-0-----5-4-3-1---|
E|-----3-----3-----------3-----------------|

Bridge (Guitar 2)
The chords are Cm Gm Cm Gm A Gm A D5 C#5 C5 Bb5
e|------------------------5---------|
B|-----------------------2----------|
G|--5-----5-----6-\3----2--7-6-5-3--|
D|--5--5--5--5--7-\5---2------------|
A|--3--5--3--5--7-\5--0----5-4-3-1--|
E|-----3-----3--5-\3----------------|

Outro (Almost the same as verses and choruses,
but with the chromatic riff and the synth music box,
which is very fun to play)
Guitar 1 (Basic Riff)
e|----3---3---3---3----0-5p3----------|
B|---3-3-3-3-3-3-4-4--2---------------|
G|--0---2---3---3----2------7-6-5-3---|
D|--------------------------7-6-5-3---|
A|--------------------------5-4-3-1---|
E|------------------------------------|

Guitar 2 (Basic Riff)
e|---------------------------5p3----------------|
B|--------------------------2-------------------|
G|-------------------3-----2--------------------|
D|----5----5----5---5-5---2-----7/12-11-10-8----|
A|---5----5----5-5-6-----0----------------------|
E|--3--3-5--5-6-----------------5/10-9-8-6------|

Synth Music Box (I can't really make out what's being played,
but this is something close)
e|-----15-13--------------------|
B|----------15--15-14-13-12-----|
G|--12--------------------------|
D|------------------------------|
A|------------------------------|
E|------------------------------|

That's it! It took me a while (these Alain Whyte riffs are hard, but fun to master).
The verses are the same with the choruses and that's why I didn't tab them.
 If you want to play it with just one guitar I suggest using Guitar 2 for the verses and 
choruses and
Guitar 1 for the Bridge and Pre Choruses. Have fun playing this amazing song!

************************************

| /   slide up
| \   slide down
| h   hammer-on
| p   pull-off

************************************
Добавлено: 07.07.2013
Другие материалы по этой песне:
  • Аккорды и текст

Страница создана 07.07.2013
http://primanota.ru/morrissey/how-can-anybody-possibly-know-how-i-feel-chords.htm
Привет, Гость.
Предлагаем пройти революционный курс по гитаре.
Подарок от PrimaNota.Ru, забирай!