PrimaNota.ru - самый крупный в мире бесплатный архив песенных текстов, аккордов, табулатур и нот


Moros Eros - When I Wake - таба, видео

Регистрация Запомнить меня
Войти через:  Facebook Google Twitter Vk Yandex Mail.ru

Moros Eros - When I Wake - таба, видео

Печатать
Просмотров: 74
-------------------------------------------------------------------------------
              When I Wake (Acoustic) - Moros Eros
-------------------------------------------------------------------------------
Tabbed by: jarod_a11en  
E-mail:    jarodallen123@hotmail.com



Tuning: Standard EADGBe          



[Here is the video link for youtube if you feel there are errors. If you see anything let me know
I'd apprieciate it]

                 http://www.youtube.com/watch?v=hcQ16qGzJTQ


-The video shows Zach Tipton performing live on a radio station. Moros Eros broke 
up, but Tipton's new projects
are worth checking out. Young Coyotes and I Am The Dot.

___________________________________________________________________________________
___________________________________________________________________________________

                                  INTRODUCTION   

e|------------------------------------------------------------------------------|
B|------------------------------------------------------------------------------|
G|-7-7-7-7--7-7-7-7--7-7-7-7--5-5-5-5--7-7-7-7--7-7-7-7--7-7-7-7--5-5-5-5-------| 
D|-8-8-8-8--8-8-8-8--8-8-8-8--x-x-x-x--8-8-8-8--8-8-8-8--8-8-8-8--x-x-x-x-------|
A|-x-x-x-x--x-x-x-x--6-6-6-6--6-6-6-6--x-x-x-x--x-x-x-x--6-6-6-6--6-6-6-6-------|
E|-6-6-6-6--6-6-6-6--0-0-0-0--x-x-x-x--6-6-6-6--6-6-6-6--0-0-0-0--x-x-x-x-------|



                                     VERSE 1 
    
  -(the Symbol (r) means hold note and let ring)


e|-----------------------------------------------------------------------------------------------|
B|-----------------------------------------------------------------------------------------------|
G|-------7(r)---------------------5(r)-555555/7(r)-------------------------5(r)-555555/7---------|
D|-------x(r)---------------------x(r)-xxxxxx/x(r)-------------------------x(r)-xxxxxx/x---------|
A|-------8(r)---------------------6(r)-666666/8(r)-------------------------6(r)-666666/8---------|
E|-------x(r)---------------------x(r)-xxxxxx/x(r)-------------------------x(r)-xxxxxx/x---------|
   I am lying..By your tombstone, baby        Let's separate the ground in between
                                                                Is the fate of an angel...

e|-----------------------------------------------------------------------------------------------|
B|-----------------------------------------------------------------------------------------------|
G|----------------------5(r)-------------------------------------------7(r)--777777/5--555555555-|
D|----------------------x(r)-------------------------------------------x(r)--xxxxxx/x--xxxxxxxxx-|
A|----------------------6(r)-------------------------------------------8(r)--888888/6--666666666-|
E|----------------------x(r)-------------------------------------------x(r)--xxxxxx/x--xxxxxxxxx-|
  In the hand of angles Sharp pointed and rusted Just like the ones who loved her...but failed
___________________________________________________________________________________
___________________________________________________________________________________


                               CHORUS

e|--------------------------------------------------------------------------------------|
B|--------------------------------------------------------------------------------------|
G|-7-7-7-7--7-7-7-7----7-7-7-7---5-5-5-5-----7-7-7-7--7-7-7-7--7-7-7-7------5-5-5-5-----|
D|-8-8-8-8--8-8-8-8----8-8-8-8---x-x-x-x-----8-8-8-8--8-8-8-8--8-8-8-8------x-x-x-x-----|
A|-x-x-x-x--x-x-x-x----6-6-6-6---6-6-6-6-----x-x-x-x--x-x-x-x--6-6-6-6------6-6-6-6-----|
E|-6-6-6-6--6-6-6-6----0-0-0-0---x-x-x-x-----6-6-6-6--6-6-6-6--0-0-0-0------x-x-x-x-----|
   Let the  light pour across my face    and blind me          so I can see when I wake.. 
 
e|-----------------------------------------------|
B|-----------------------------------------------|
G|-x-x-x-x-x-x-x-x-x-x-x-x-x--x-x-x-x-x-x-x-x-x-x|
D|-6-9-0-0-6-9-0-0-6-9-0-0-6--6-9-0-0-6-9-0-0-6-9|
A|-6-6-0-0-6-6-0-0-6-6-0-0-6--6-6-0-0-6-6-0-0-6-6|
E|-6-7-0-0-6-7-0-0-6-7-0-0-6--6-7-0-0-6-7-0-0-6-7|    

e|----------------------------------------------------------------------------------|
B|-----x-x-----x-x-----x-x-x--x-x-x-x-x-x/x-x-x-x-x-x/x-x-x-x-x-x/x--x--x--x--x--x--|
G|-x-x-x-x-x-x-x-x-x-x-x-x-x--5-5-5-5-5-5/6-6-6-6-6-6/8-8-8-8-8-8/10-10-10-10-10-10-|
D|-6-9-0-0-6-9-0-0-6-9-0-0-6--x-x-x-x-x-x/7-7-7-7-7-7/9-9-9-9-9-9/10-10-10-10-10-10-|
A|-6-6-0-0-6-6-0-0-6-6-0-0-6--6-6-6-6-6-6/0-0-0-0-0-0/0-0-0-0-0-0/0--0--0--0--0--0--|
E|-6-7-0-0-6-7-0-0-6-7-0-0-6--x-x-x-x-x-x/x-x-x-x-x-x/x-x-x-x-x-x/x--x--x--x--x--x--| 
   Ohhhhh....                
___________________________________________________________________________________
___________________________________________________________________________________

                     Verse 2

e|--------------------------------------------------------------------|
B|--------------------------------------------------------------------|
G|-7-7-7-7--7-7-7-7--7-7-7-7--5-5-5-5--7-7-7-7--7-7-7-7--7-7-7-7--5--5|
D|-8-8-8-8--8-8-8-8--8-8-8-8--x-x-x-x--8-8-8-8--8-8-8-8--8-8-8-8--x--x| 
A|-x-x-x-x--x-x-x-x--6-6-6-6--6-6-6-6--x-x-x-x--x-x-x-x--6-6-6-6--6--6|
E|-6-6-6-6--6-6-6-6--0-0-0-0--x-x-x-x--6-6-6-6--6-6-6-6--0-0-0-0--x--x|

e|----------------------------------------------------------------------------------|
B|----------------------------------------------------------------------------------|
G|--7(r)----------------------------5(r)-555555/7(r)-------------------5(r)-555555/-|
D|--x(r)----------------------------x(r)-xxxxxx/x(r)-------------------x(r)-xxxxxx/-|
A|--8(r)----------------------------6(r)-666666/8(r)-------------------6(r)-666666/-|
E|--x(r)----------------------------x(r)-xxxxxx/x(r)-------------------x(r)-xxxxxx/-|
  I am sleeping right beneath you, darling      I heard every word you said 

e|--------------------------------------------------------------------|
B|--------------------------------------------------------------------|
G|-/7---------------------------------------------5-------------------|
D|-/x---------------------------------------------x-------------------|
A|-/8---------------------------------------------6-------------------|
E|-/x---------------------------------------------x-------------------|
  with both hands I'm peeling away at the ceiling Of a place visited too soon

e|--------------------------------------------------------------------|
B|--------------------------------------------------------------------|
G|-------------------7(r)--------------------------5(r)-555555--------|
D|-------------------x(r)--------------------------x(r)-xxxxxx--------|
A|-------------------8(r)--------------------------6(r)-666666--------|
E|-------------------x(r)--------------------------x(r)-xxxxxx--------|
  I am screaming out Oh! Love Please don't wake up now!
___________________________________________________________________________________
___________________________________________________________________________________

                                    CHORUS

e|--------------------------------------------------------------------------------------|
B|--------------------------------------------------------------------------------------|
G|-7-7-7-7--7-7-7-7----7-7-7-7---5-5-5-5-----7-7-7-7--7-7-7-7--7-7-7-7------5-5-5-5-----|
D|-8-8-8-8--8-8-8-8----8-8-8-8---x-x-x-x-----8-8-8-8--8-8-8-8--8-8-8-8------x-x-x-x-----|
A|-x-x-x-x--x-x-x-x----6-6-6-6---6-6-6-6-----x-x-x-x--x-x-x-x--6-6-6-6------6-6-6-6-----|
E|-6-6-6-6--6-6-6-6----0-0-0-0---x-x-x-x-----6-6-6-6--6-6-6-6--0-0-0-0------x-x-x-x-----|
   Let the  light pour across my face    and blind me          so I can see when I wake..

e|-----------------------------------------------|
B|-----------------------------------------------|
G|-x-x-x-x-x-x-x-x-x-x-x-x-x--x-x-x-x-x-x-x-x-x-x|
D|-6-9-0-0-6-9-0-0-6-9-0-0-6--6-9-0-0-6-9-0-0-6-9|
A|-6-6-0-0-6-6-0-0-6-6-0-0-6--6-6-0-0-6-6-0-0-6-6|
E|-6-7-0-0-6-7-0-0-6-7-0-0-6--6-7-0-0-6-7-0-0-6-7|    

e|----------------------------------------------------------------------------------|
B|-----x-x-----x-x-----x-x-x--x-x-x-x-x-x/x-x-x-x-x-x/x-x-x-x-x-x/x--x--x--x--x--x--|
G|-x-x-x-x-x-x-x-x-x-x-x-x-x--5-5-5-5-5-5/6-6-6-6-6-6/8-8-8-8-8-8/10-10-10-10-10-10-|
D|-6-9-0-0-6-9-0-0-6-9-0-0-6--x-x-x-x-x-x/7-7-7-7-7-7/9-9-9-9-9-9/10-10-10-10-10-10-|
A|-6-6-0-0-6-6-0-0-6-6-0-0-6--6-6-6-6-6-6/0-0-0-0-0-0/0-0-0-0-0-0/0--0--0--0--0--0--|
E|-6-7-0-0-6-7-0-0-6-7-0-0-6--x-x-x-x-x-x/x-x-x-x-x-x/x-x-x-x-x-x/x--x--x--x--x--x--| 
   Ohhhhh....                

e|--x(r)---|
B|--x(r)---|
G|--6(r)---| End on
D|--6(r)---|
A|--6(r)---|
E|--6(r)---|

___________________________________________________________________________________
___________________________________________________________________________________


************************************
| r   let ring
| /   slide up
| \   slide down
| h   hammer-on
| p   pull-off
| ~   vibrato
| +   harmonic
| x   Mute note
| b   Bend
| pb  Pre-bend
| br  Bend release
| pbr Pre-bend release
| brb Bend release bend

************************************
Добавлено: 20.10.2013
Другие материалы по этой песне:
  • Аккорды и текст

Страница создана 20.10.2013
http://primanota.ru/moros-eros/when-i-wake-chords.htm
Привет, Гость.
Предлагаем пройти революционный курс по гитаре.
Подарок от PrimaNota.Ru, забирай!