PrimaNota.ru - самый крупный в мире бесплатный архив песенных текстов, аккордов, табулатур и нот


Moros Eros - Insane And Speechless - таба, видео

Регистрация Запомнить меня
Войти через:  Facebook Google Twitter Vk Yandex Mail.ru

Moros Eros - Insane And Speechless - таба, видео

Печатать
Просмотров: 54
-----------------------------------------------------------------------------
               Insane And Speechless - Moros Eros
-----------------------------------------------------------------------------
Tabbed by: jarod_a11en
E-mail:jarodallen123@hotmail.com

Tuning: EADGBe (Standard)

This is sadly my last Moros Eros tab. This tab comes straight from a video
I found of Zach Tipton performing live on a radio show. The performance is
acoustic.

Here is the link to the video: http://www.youtube.com/watch?v=wSLtncnGoDI




INTRO

e|--------------------------------|
B|-6-6-6---------6-6-6------------|
G|-5-5-5--5-5-5--7-7-7--5-5-5-----|
D|-7-7-7--5-5-5--x-x-x--5-5-5-----|x2
A|--------5-5-5---------5-5-5-----|
E|--------------------------------|






VERSE I

e|-----------------------------------------|
B|-6666-6666-6666-6666---------------------|
G|-5555-5555-5555-5555-5555-5555-5555-5555-|
D|-7777-7777-7777-7777-5555-5555-5555-5555-|
A|---------------------5555-5555-5555-5555-|
E|-----------------------------------------|

  ----------------------------------------|
  6666-6666-6666-6666---------------------| Play up down pattern
  7777-7777-7777-7777-5555-5555-5555-5555-|
  xxxx-xxxx-xxxx-xxxx-5555-5555-5555-5555-|
  --------------------5555-5555-5555-5555-|
  ----------------------------------------|


e|----------------------------------------------|
B|-6-666-6666------------6-666-6666-------------|
G|-5-555-5555-5-555-5555-7-777-7777-5-555-5555--|
D|-7-777-7777-5-555-5555-x-xxx-xxxx-5-555-5555--|x2
A|------------5-555-5555------------5-555-5555--|
E|----------------------------------------------|




BRIDGE

e|-------------------------|
B|-666-666-----666-666-----|
G|-555-555-555-777-777-555-|
D|-777-777-555-xxx-xxx-555-|
A|---------555---------555-|
E|-------------------------|

 |--------------------------------------------------|
 |-666-666-----------------666----------------------|
 |-555-555-555-xxx-xxx-xxx-777-xxx-xxx-xxx-555------|
 |-777-777-555-xxx-xxx-xxx-xxx-xxx-xxx-xxx-555------|
 |---------555-xxx-xxx-xxx-----xxx-xxx-xxx-555------|
 |--------------------------------------------------|




VERSE II

e|-----------------------------------------|
B|-6666-6666-6666-6666---------------------|
G|-5555-5555-5555-5555-5555-5555-5555-5555-|
D|-7777-7777-7777-7777-5555-5555-5555-5555-|
A|---------------------5555-5555-5555-5555-|
E|-----------------------------------------|

  ----------------------------------------|
  6666-6666-6666-6666---------------------| Play up down pattern
  7777-7777-7777-7777-5555-5555-5555-5555-|
  xxxx-xxxx-xxxx-xxxx-5555-5555-5555-5555-|
  --------------------5555-5555-5555-5555-|
  ----------------------------------------|

e|----------------------------------------------|
B|-6-666-6666------------6-666-6666-------------|
G|-5-555-5555-5-555-5555-7-777-7777-5-555-5555--|
D|-7-777-7777-5-555-5555-x-xxx-xxxx-5-555-5555--|x2
A|------------5-555-5555------------5-555-5555--|
E|----------------------------------------------|








BREAKDOWN PART

e|------------------------------------------------------|
B|-6----------------------------------------------------|
G|-5----(5)(5)--------(5)(5)----------------------xx-xx-|x2
D|-7----(5)(5)-(5)(5)-(5)(5)----------------------xx-xx-|
A|-------8--8---5--5---8--8--55-88-55-88-55-88-55-xx-xx-|
E|------------------------------------------------------|

e|--x-x--------x-x----------------------------------|
B|--x-x--------x-x----------------------------------|
G|--5-5-(5)(5)-5-5-(5)(5)---------------------------|
D|--x-x--0--0--x-x--0--0--0-0--0-0--0-0--0-0--0-0---|
A|--8-8--0--0--8-8--0--0--5-5--0-0--5-5--0-0--0-0---|x2
E|--8-8--0--0--8-8--0--0--5-5--0-0--5-5--0-0--5-5---|







OUTRO/END

e|--------------------------|------|------------|
B|--666-66-------666-66-----|Long--|---6-6-x----|
G|--555-55-555xx-777-77-555-|Pause-|-x-5-5-x----|
D|--777-77-555xx-xxx-xx-555-|Then--|-x-7-7-x----|
A|---------555xx--------555-|End---|-x-----x----|
E|--------------------------|On----|-x-----x----|


************************************

| /   slide up
| \   slide down
| h   hammer-on
| p   pull-off
| ~   vibrato
| +   harmonic
| x   Mute note
| b   Bend
| pb  Pre-bend
| br  Bend release
| pbr Pre-bend release
| brb Bend release bend

************************************
Добавлено: 22.11.2013
Вам также может быть интересно:
Другие материалы по этой песне:
  • Аккорды и текст

Страница создана 22.11.2013
http://primanota.ru/moros-eros/insane-and-speechless-chords.htm
Привет, Гость.
Предлагаем пройти революционный курс по гитаре.
Подарок от PrimaNota.Ru, забирай!