PrimaNota.ru - самый крупный в мире бесплатный архив песенных текстов, аккордов, табулатур и нот


Morningwood - Sugarbaby - текст песни, бас-таба, видео

Регистрация Запомнить меня
Войти через:  Facebook Google Twitter Vk Yandex Mail.ru

Morningwood - Sugarbaby - текст песни, бас-таба, видео

Печатать
Просмотров: 148
Новый альбом группы 'Черный Кузнец' по культовому сериалу 'Сверхъестественное'!
I'm sure this is pretty much spot on ;D

INTRO
G|-----------------------|
D|-----------------------|
A|-----------------------| x 2
E|-0-0-0-0-0-0-6-6-5-5-3-|

VERSE
G|------------------------|
D|------------------------|
A|------------------------| x 3
E|-12-12--10-10--8-8--7-7-|

G|---------------------|
D|---------------------|
A|---------------------|
E|-5-5-5-5-5-8-8-8-8-8-|

G|------------------------|
D|------------------------|
A|------------------------| x 3
E|-12-12--10-10--8-8--7-7-|

G|----------------------------------|
D|----------------------------------|
A|----------------------------------|
E|-5-5-5-5-5-8-8-8-8-8--5-5-5-5-5-8-|

CHORUS x2
G|-----------------------------------------|
D|-----------------------------------------|
A|-----------------------------------------|
E|-12-12-12-12-12-12-12-12-8-8-8-8-8-8-8-8-|

G|-------------------------------------------------|
D|-------------------------------------------------|
A|-10-10-10-10-10-10-10-10-------------------------|
E|-------------------------10-10-10-10-10-10-10-10-|

VERSE
G|------------------------|
D|------------------------|
A|------------------------| x 3
E|-12-12--10-10--8-8--7-7-|

G|---------------------|
D|---------------------|
A|---------------------|
E|-5-5-5-5-5-8-8-8-8-8-|

G|------------------------|
D|------------------------|
A|------------------------| x 3
E|-12-12--10-10--8-8--7-7-|

G|----------------------------------|
D|----------------------------------|
A|----------------------------------|
E|-5-5-5-5-5-8-8-8-8-8--5-5-5-5-5-8-|

CHORUS x2
G|-----------------------------------------|
D|-----------------------------------------|
A|-----------------------------------------|
E|-12-12-12-12-12-12-12-12-8-8-8-8-8-8-8-8-|

G|-------------------------------------------------|
D|-------------------------------------------------|
A|-10-10-10-10-10-10-10-10-------------------------|
E|-------------------------10-10-10-10-10-10-10-10-|

SOLO
G|-----------------------|
D|-----------------------|
A|-----------------------| x 4
E|-0-0-0-0-0-0-6-6-5-5-3-|

CHORUS x4
G|-----------------------------------------|
D|-----------------------------------------|
A|-----------------------------------------|
E|-12-12-12-12-12-12-12-12-8-8-8-8-8-8-8-8-|

G|-------------------------------------------------|
D|-------------------------------------------------|
A|-10-10-10-10-10-10-10-10-------------------------|
E|-------------------------10-10-10-10-10-10-10-10-|
Добавлено: 09.03.2012
Другие материалы по этой песне:
  • Аккорды и текст

Страница создана 09.03.2012
http://primanota.ru/morningwood/sugarbaby-chords.htm
Привет, Гость.
Предлагаем пройти революционный курс по гитаре.
Подарок от PrimaNota.Ru, забирай!