PrimaNota.ru - самый крупный в мире бесплатный архив песенных текстов, аккордов, табулатур и нот


Morningwood - Jetsetter - текст песни, таба, бас-таба, видео

Регистрация Запомнить меня
Войти через:  Facebook Google Twitter Vk Yandex Mail.ru

Morningwood - Jetsetter - текст песни, таба, бас-таба, видео

Печатать
Просмотров: 136
-----------------------------------------------------------------------------
                             Jetsetter - Morningwood
-----------------------------------------------------------------------------
Tabbed by: Brad Bolman
Email: Mageball24@kc.rr.com

Tuning: standard

^ = bend
v = pick

Verse:
(x8) 
e|---------------------------------------------------------------------------|
B|---------------------------------------------------------------------------|
G|--9-------9----------------------------------------------------------------|
D|--9-(x3)--9-(x5)-----------------------------------------------------------|
A|–-7-------6----------------------------------------------------------------|
E|---------------------------------------------------------------------------|
                   This is a jetsetter ... from me to you   
                   This is a jetsetter ... from me to you

Chorus:
With a heavy grunge effect
e|---------------------------------------------------------------------------|
B|---------------------------------------------------------------------------|
G|—-9-9-9-4-4-4-5-5-5-2-2-2--------------------------------------------------|
D|--9-9-9-4-4-4-5-5-5-2-2-2-(repeat until “even harder to say yes”)----------|
A|--7-7-7-2-2-2-3-3-3-0-0-0--------------------------------------------------|
E|---------------------------------------------------------------------------|
                       I'm writing from the bedroom ... to say yes

Verse:
(x8) 
e|---------------------------------------------------------------------------|
B|---------------------------------------------------------------------------|
G|--9-------9----------------------------------------------------------------|
D|--9-(x3)--9-(x5)-----------------------------------------------------------|
A|–-7-------6----------------------------------------------------------------|
E|---------------------------------------------------------------------------|
                   This is a jetsetter ... from me to you   
                   This is a jetsetter ... from me to you

Chorus:
With a heavy grunge effect
e|---------------------------------------------------------------------------|
B|---------------------------------------------------------------------------|
G|—-9-9-9-4-4-4-5-5-5-2-2-2--------------------------------------------------|
D|--9-9-9-4-4-4-5-5-5-2-2-2-(repeat until “must be wrong”)-------------------|
A|--7-7-7-2-2-2-3-3-3-0-0-0--------------------------------------------------|
E|---------------------------------------------------------------------------|
                      You met a naf ... must be wrong  

Verse:
(x8) 
e|---------------------------------------------------------------------------|
B|---------------------------------------------------------------------------|
G|--9-------9----------------------------------------------------------------|
D|--9-(x3)--9-(x5)-----------------------------------------------------------|
A|–-7-------6----------------------------------------------------------------|
E|---------------------------------------------------------------------------|
                   This is a jetsetter ... from me to you   
                   This is a jetsetter ... from me to you




Solo:
With a heavy grunge effect
Guitar 1:
e|---------------------------------------------------------------------------|
B|---------------------------------------------------------------------------|
G|—-9-9-9-4-4-4-5-5-5-2-2-2--------------------------------------------------|
D|--9-9-9-4-4-4-5-5-5-2-2-2-(repeat as needed)-------------------------------|
A|--7-7-7-2-2-2-3-3-3-0-0-0--------------------------------------------------|
E|---------------------------------------------------------------------------|  
Guitar 2:                                                   
e|---------------------------------------------------------------------------|
B|---------------------------------------------------------------------------|
G|---------------------------------------------------------------------------|
D|----v-v-------------------vv-vv----------19-17–{14-17-16-14} (repeat)------|
A|–-7-9-9-7-5-7-14/12\14-19-21-21-19-17-19-^^--------------------------------|
E|----^-^-------------------^^-^^--------------------------------------------|

Chorus:

e|---------------------------------------------------------------------------|
B|---------------------------------------------------------------------------|
G|—-9-9----------------------------------------------------------------------|
D|--9-9-----(no guitar in this part)-----------------------------------------|
A|--7-7----------------------------------------------------------------------|
E|---------------------------------------------------------------------------|
            Now I'm writing cause I miss you ... give a f%^k

e|---------------------------------------------------------------------------|
B|---------------------------------------------------------------------------|
G|—-9-9-9-4-4-4-5-5-5-2-2-2--------------------------------------------------|
D|--9-9-9-4-4-4-5-5-5-2-2-2-(repeat as needed)-------------------------------|
A|--7-7-7-2-2-2-3-3-3-0-0-0--------------------------------------------------|
E|---------------------------------------------------------------------------|
              And I'm tired of sleeping ... wanna come back now

e|---------------------------------------------------------------------------|
B|---------------------------------------------------------------------------|
G|—-9-9-9-4-4-4-5-5-5-2-2-2--------------------------------------------------|
D|--9-9-9-4-4-4-5-5-5-2-2-2-(repeat as needed)-------------------------------|
A|--7-7-7-2-2-2-3-3-3-0-0-0--------------------------------------------------|
E|---------------------------------------------------------------------------|
         I wanna come back now ... I wanna come back now ...

e|---------------------------------------------------------------------------|
B|---------------------------------------------------------------------------|
G|---------------------------------------------------------------------------|
D|----------------VV-VV------------------------------------------------------|
A|-------19-18-19-21-21-19-18-(repeat as needed)-----------------------------|
E|----------------^^-^^------------------------------------------------------|
         This is a jetsetter ... This is a jetsetter

e|---------------------------------------------------------------------------|
B|---------------------------------------------------------------------------|
G|—-9-9-9-4-4-4-5-5-5-2-2-2--------------------------------------------------|
D|--9-9-9-4-4-4-5-5-5-2-2-2-(repeat as needed)-------------------------------|
A|--7-7-7-2-2-2-3-3-3-0-0-0--------------------------------------------------|
E|---------------------------------------------------------------------------|
          This is a jetsetter ... This is a jetsetter ...

End on:

e----
b----
g----
d–2-
a–2-
E–0-
Добавлено: 14.05.2012
Другие материалы по этой песне:
  • Аккорды и текст

Страница создана 14.05.2012
http://primanota.ru/morningwood/jetsetter-chords.htm
Привет, Гость.
Предлагаем пройти революционный курс по гитаре.
Подарок от PrimaNota.Ru, забирай!