PrimaNota.ru - самый крупный в мире бесплатный архив песенных текстов, аккордов, табулатур и нот


Morning Teleportation - Expanding Anyway - таба, видео

Регистрация Запомнить меня
Войти через:  Facebook Google Twitter Vk Yandex Mail.ru

Morning Teleportation - Expanding Anyway - таба, видео

Печатать
Просмотров: 58
Expanding Anyway tab capo 5 (heavy reverb, slight distortion)
Intro:
e|---1------1------1------1------1------1------------------------|
B|------1------1-------------1------1----------------------------|
G|o----2------2------2------2------2------2----------------------|
D|o--3------3------3------3------3------3------------------------|
A|---------------------------------------------------------------|
E|---------------------------------------------------------------|

e|--0-------0------0------0-3/5-3--------------------------------|
B|-----1-------1-------------------5-3--1------------------------|
G|----0-------0------0--------------------2---------------------o|
D|--------------------------------------------------------------o|
A|--3-------3------3------3--------------------------------------|
E|---------------------------------------------------------------|

Verse: (0:24) this picking pattern between F and C

Chorus: (0:47)play while strumming F maj 7
e|---0~----------0------------------0-0--------------------------|
B|---1~----------3--3---1---3---1--------3-3-1-------------------|
G|---0~----------2-----------------------------------------------|
D|---2~----------3-----------------------------------------------|
A|---3~----------------------------------------------------------|
E|---------------------------------------------------------------|
Play while strumming C
e|---1~----------0-----------3---5---3---------------------------|
B|---3~----------1------3/5----5---5---5-------------------------|
G|---2~----------0-----------------------------------------------|
D|---3~----------2-----------------------------------------------|
A|---------------3-----------------------------------------------|
E|---------------------------------------------------------------|
Just strum F
e|---0~----------1-----1-----------------------------------------|
B|---1~----------1-----1-----------------------------------------|
G|---0~----------2-----2-----------------------------------------|
D|---2~----------3-----3-----------------------------------------|
A|---3~----------------------------------------------------------|
E|---------------------------------------------------------------|

e|---1~----------0--------------0--------------------------------|
B|---1~----------1---0--1--3----0--------------------------------|
G|---2~----------0-----------------------------------------------|
D|---3~----------2-----------------------------------------------|
A|---------------3-----------------------------------------------|
E|---------------------------------------------------------------|
Interlude: (1:13)
e|--7/8-7--5/7-5--3/5-3---1-3~--1-0------------------------------|
B|----------------------------------3-1-0------------------------|
G|----------------------------------------2----------------------|
D|---------------------------------------------------------------|
A|---------------------------------------------------------------|
E|---------------------------------------------------------------|

e|--------0-1-3-5~--5/8-8/10-------------------------------------|
B|--0-1-3--------------------------------------------------------|
G|---------------------------------------------------------------|
D|---------------------------------------------------------------|
A|---------------------------------------------------------------|
E|---------------------------------------------------------------|

e|--7/8-7--5/7-5--3/5-3---1-3~--1-0------------------------------|
B|----------------------------------3-1-0------------------------|
G|----------------------------------------2----------------------|
D|---------------------------------------------------------------|
A|---------------------------------------------------------------|
E|---------------------------------------------------------------|

e|---------0-3/5---3---1p0---------------------------------------|
B|--0-1-3--------------------------------------------------------|
G|---------------------------------------------------------------|
D|---------------------------------------------------------------|
A|---------------------------------------------------------------|
E|---------------------------------------------------------------|

2nd Verse: (1:25) Play verse again just strumming

2nd Chorus: (1:53)
e|---------------0------0h3p0--0---0-0---------------------------|
B|---1-----------1---3------------------3-3-1-3------------------|
G|---0-----------2-----------------------------------------------|
D|---2-----------3-----------------------------------------------|
A|---3-----------------------------------------------------------|
E|---------------------------------------------------------------|

e|---1~----------0-----------3---5---3---------------------------|
B|---3~----------1------3/5----5---5---5-------------------------|
G|---2~----------0-----------------------------------------------|
D|---3~----------2-----------------------------------------------|
A|---------------3-----------------------------------------------|
E|---------------------------------------------------------------|

e|---0~----------1-----1-----------------------------------------|
B|---1~----------1-----1-----------------------------------------|
G|---0~----------2-----2-----------------------------------------|
D|---2~----------3-----3-----------------------------------------|
A|---3~----------------------------------------------------------|
E|---------------------------------------------------------------|

e|---1~----------0--------------0--------------------------------|
B|---1~----------1---0--1--3----0--------------------------------|
G|---2~----------0-----------------------------------------------|
D|---3~----------2-----------------------------------------------|
A|---------------3-----------------------------------------------|
E|---------------------------------------------------------------|
2nd Interlude:(2:18)
e|---0-----0-----0----0---0--------------------------------------|
B|---1---3----3-----3--------------------------------------------|
G|---2-----------------------------------------------------------|
D|---3-----------------------------------------------------------|
A|---------------------------------------------------------------|
E|---------------------------------------------------------------|

e|---0-----------------------------------------------------------|
B|---1-----------------------------------------------------------|
G|---0-----------------------------------------------------------|
D|---2-----------------------------------------------------------|
A|---3-----------------------------------------------------------|
E|---------------------------------------------------------------|

e|---0----3p0--0-0------------3p0-3p0----------------------------|
B|---1-----------------------------------------------------------|
G|---2-----------------------------------------------------------|
D|---3-----------------------------------------------------------|
A|---------------------------------------------------------------|
E|---------------------------------------------------------------|

e|---0---------------------------------------7h8-5h7-3h5---------|
B|---1-----------------------------------------------------------|
G|---0-----------------------------------------------------------|
D|---2-----------------------------------------------------------|
A|---3-----------------------------------------------------------|
E|---------------------------------------------------------------|

e|---------------------------------------------------------------|
B|---------------------------------------------------------------|
G|-----------------0-2---2-0-2-0-2-0-2-0-------------------------|
D|----------0-2-3------------------------------------------------|
A|----0-2-3------------------------------------------------------|
E|---------------------------------------------------------------|

e|---------------------------------------------------------------|
B|-------------------------------1-------------------------------|
G|-----------------0-2---2-0-2-0---2-0---------------------------|
D|----------0-2-3------------------------------------------------|
A|----0-2-3------------------------------------------------------|
E|---------------------------------------------------------------|

e|---------------------------------------------------------------|
B|--------------------------------1------------------------------|
G|-----------------0-2----2h0p2h0----2h0p2h0-------0-------------|
D|----------0-2-3-----------------------------0h2----------------|
A|----0-2-3------------------------------------------------------|
E|---------------------------------------------------------------|

e|---------------------------------------------------------------|
B|---------------------------------------------------------------|
G|-----------------0-2---------2/5/7/9---------------------------|
D|----------0-2-3------------------------------------------------|
A|----0-2-3------------------------------------------------------|
E|---------------------------------------------------------------|
La la la (2:44)
  F F F  C C C  F F F  C C C

You should be able to figure out the rest of the song with the above
*please note this is not 100% dead-on... it's just how i play it and there might be a 
few inconsistencies
Добавлено: 05.09.2013
Вам также может быть интересно:
Другие материалы по этой песне:
  • Аккорды и текст

Страница создана 05.09.2013
http://primanota.ru/morning-teleportation/expanding-anyway-chords.htm
Привет, Гость.
Предлагаем пройти революционный курс по гитаре.
Подарок от PrimaNota.Ru, забирай!