PrimaNota.ru - самый крупный в мире бесплатный архив песенных текстов, аккордов, табулатур и нот


Morning Musume - Kanashimi Twilight - аккорды и текст, таба, видео

Регистрация Запомнить меня
Войти через:  Facebook Google Twitter Vk Yandex Mail.ru

Morning Musume - Kanashimi Twilight - аккорды и текст, таба, видео

Печатать
Просмотров: 253
Kanashimi Twilight
Morning Musume
Kamashimi Twilight by manOutOfTime (neil_willey@hotmail.com) Now with Chorus lead & 
Enjoy.

Key: C#m

Intro:
-----------------------------------|------------------|
-----------------------------------|------------------|
-6-6-------------------------------|------------------|
-6-6--4b-r4-2-----------2--4b-r4-2-|------------------|
-4-4----------4-2-4-2-4------------|------------------|
-----------------------------------|------------------|

-----------------------------------|------------------|
----------------------7--------7-9v|------------------|
-6-6--------------6-4---6v-6-9-----|------------------|
-6-6--4b-r4-2---2------------------|------------------|
-4-4----------4--------------------|------------------|
-----------------------------------|------------------|


-7-----------------|----------------------------------|
---9r7-----7-------|----------------------------------|
-------9v----6v----|----------------------------------|
-------------------|----------------------------------|
-------------------|----------------------------------|
-------------------|----------------------------------|


-9---9-----------------------------------------------|----0--|
-12b-12b--12-9-16-14-16-17bv--17-16--17-16-14v-------|---0---|
-----------------------------------------------6-4-6-|--2----|
-----------------------------------------------6-4-6-|-2-----|
-----------------------------------------------4-2-4-|-------|
-----------------------------------------------------|-------|
     Played over:
C#m	F#m	B	C#m

Verse 1
F#m	A	Abm	C#m 	   x2

Bridge 1
A	C#m	F#m	Abm A	B

Chorus 1
-|------------------------------------------------------------------------|--|
-|--13b---12--------------------------------------------------------------|--|
-|-----------13-11\9-----11b13r11-9-11vvv-8b-8vvv--\4-/6------------------|--|
-|-------------------11v--------------------------------------/9-/11-/12--|--|
-|------------------------------------------------------------------------|--|
-|------------------------------------------------------------------------|--|


--------12------------------------------------------------------||-----------|
-14v-------13b14vvv-/17-15-13-10vv---/14-12v----/16-14vvv----\2-||-----------|
----------------------------------------------------------------||-----------|
----------------------------------------------------------------||-----------|
----------------------------------------------------------------||-----------|
----------------------------------------------------------------||-----------|
         Played over:
C#m	A	F#m     B	C#m
C#m	A	F#m     B	A

Intro Riff 2
C#m	F#m	B	C#m

Verse 2
F#m	A	Abm	C#m 	   x2

Bridge 2
A	C#m	F#m	Abm A	B

Chorus 2(with riff)
C#m	A	F#m     B	C#m
C#m	A	F#m     B	A

Solo


-|---------------------------|--17-16-14----------14------------------------|
-|-----------------14-12-14v-|-----------16-14-16----17-16-14---------------|
-|---------------------------|--------------------------------16-14-16-14v--|
-|---------------------------|----------------------------------------------|
-|---------------------------|----------------------------------------------|
-|---------------------------|----------------------------------------------|

-------------------19------|---------------19----19bv-19-17v--|--/17v-16-----|
---------------19b----19b--|-19v-17-16-17-----17--------------|--------------|
-4/11--4/17----------------|----------------------------------|--------------|
---------------------------|----------------------------------|--------------|
---------------------------|----------------------------------|--------------|
---------------------------|----------------------------------|--------------|

-14h16p12-11-12-14---------|----------------------14^--/8--/11-/12-/16v-|----|
-------------------12v-----|-\7-9-10v--9h10p9p7-9-----------------------|----|
---------------------------|--------------------------------------------|----|
---------------------------|--------------------------------------------|----|
---------------------------|--------------------------------------------|----|
---------------------------|--------------------------------------------|----|
        Played Over:
C#m	F#m	B	Abm

Chorus 3 (& Riff)
C#m	A	F#m     B	C#m
C#m	A	F#m     B	A

Intro Riff 3
C#m	F#m	B	C#m

End on C#m
Добавлено: 26.03.2012
Другие материалы по этой песне:
  • Аккорды и текст

Страница создана 26.03.2012
http://primanota.ru/morning-musume/kanashimi-twilight-chords.htm
Привет, Гость.
Предлагаем пройти революционный курс по гитаре.
Подарок от PrimaNota.Ru, забирай!