PrimaNota.ru - самый крупный в мире бесплатный архив песенных текстов, аккордов, табулатур и нот


Morning Musume Otomegumi - Renai Tte Naani - таба, видео

Регистрация Запомнить меня
Войти через:  Facebook Google Twitter Vk Yandex Mail.ru

Morning Musume Otomegumi - Renai Tte Naani - таба, видео

Печатать
Просмотров: 53
Kago Ai - Renai tte Naani
tabbed by manOutOfTime

Key: Bm

Intro
Bm	F#	A	G
Bm	F#m	A	Bm
-------------|-------------|-------------|-------------|---------------|-----|
-------------|-------------|-------------|-------------|---------------|-----|
-------------|-------------|-------------|-------------|-4---4-6-6h7p6-|-6-7-|
-------------|-------------|-------------|-------------|---4-----------|-----|
-2-2-2---0---|-2-2-2---0-1-|-2-2-2---0---|-2-2-2---0---|---------------|-----|
-------2---2-|-------2-----|-------2---2-|-------2---2-|---------------|-----|
 Guitar     1             2             3             4              5

---------|-----------------|---------------|------------|------------|-------|
-5-------|-----------------|-------7-------|------------|------------|-------|
-------7-|-----6-7p6-------|---------6-4---|------------|------------|-------|
---5h7---|-5-7-------7-----|-7-9-7-------4-|------------|------------|-------|
---------|-------------9-7-|---------------|------------|------------|-------|
---------|-----------------|---------------|------------|------------|-------|
        6                7               8   rpt5-7

-----------|-------------|--------------|-------------|---------------|-------|
-----------|-------------|--------------|-------------|-----------5-7-|-7-----|vvvv
-----------|-------------|--------------|-------------|-4---4-6-7-----|-------|
-----------|-------------|--------------|-------------|---4-----------|-------|
-----------|-------------|--------------|-------------|---------------|-------|
-----------|-------------|--------------|-------------|---------------|-------|
 Panpipes 1            2              3             4              5

---------|-5---------------|--------------|------------|--------------|------|
-vvvvvvv-|---5vvvvvvvvvvvv-|--------------|------------|--------------|------|
---------|-----------------|-7p6h7p6p4vvv-|------------|--------------|------|
---------|-----------------|--------------|------------|--------------|------|
---------|-----------------|--------------|------------|--------------|------|
---------|-----------------|--------------|------------|--------------|------|
      6                  7              8   rpt5-8

Bm        F#        F#m	F#
renai tte renai tte naani?
G             F#	     A         F#
CHOKO yori mo amai tte hontou na no?

Bm        F#        F#m	F#
renai tte renai tte naani?
G             F#m      F#
doushite DOKIDOKI suru no?

Bm        F#        F#m	F#
renai tte renai tte naani?
G             F#	     A         F#
REMON yori suppai tte donna aji?

Bm        F#        F#m	F#
renai tte renai tte naani?
G             F#	     A         F#
shokuyoku nakunaru hodo nante
G             F#m      F#
dore hodo oishii no ka na?

Bm  F#m       F#              G
aa  ashita ga kotae wakaru ka na?
   A		 Bm
ai no kotoba wa
  G    A      F# A   Bm
mada fukai  nazo darake
F#m      A         Bm
mirai wa mada mada tsuzuku

Bm			F#
(renai tte naani? renai tte naani?)
A			G
(renai tte naani? renai tte naani?)
Bm			F#m
(renai tte nannan? renai tte nanyaro?)
A			Bm
(renai tte nannan? renai tte nanyaro?)
(Over intro tab)

Bm        F#        F#m	F#
renai tte renai tte naani?
G             F#m      F#        Bm
shippai shita nara naze igai?

Bm        F#        F#m	F#
renai tte renai tte naani?
Bm        F#        F#m	F#
doushite WAKUWAKU suru no?

Bm        F#        F#m	F#
kago ai tte kago ai tte watashi
G             F#m      F#        Bm
hontou wa gyuunyuu kirai na no...

Bm        F#        F#m	F#
kago ai tte kago ai tte watashi
G             F#m      F#        Bm
sore de shinchou nobashitai
F#m      A          Bm
ganbatte nomu no da pyo~n! (nomu no da pyo~n!)

Bm  F#m       F#              G
aa  itsuka watashi mo koi wo shite
   A		 Bm
ai no kotoba wo
  G    A      F# A   Bm
ima shiranu  darekasan
F#m      A        Bm
ai no kotoba wo kikasete

Bm  F#m       F#              G
aa  ashita ga kotae wakaru ka na?
   A		 Bm
ai no kotoba wa
  G    A      F# A   Bm
mada fukai  nazo darake
F#m      A         Bm
mirai wa mada mada tsuzuku
F#m      A         Bm
mirai wa mada mada tsuzuku
F#m      A         Bm
mirai wa mada mada tsuzuku

Bm		  F#
(renai tte... renai tte...)
A		  G
(renai tte... renai tte...!)
Bm		  F#m
(renai tte... renai tte...)
A		  Bm
(renai tte... renai tte...!)
renai tte naani?
(Over intro tab)
Добавлено: 12.04.2016
Другие материалы по этой песне:
  • Аккорды и текст

Страница создана 12.04.2016
http://primanota.ru/morning-musume-otomegumi/renai-tte-naani-chords.htm
Привет, Гость.
Предлагаем пройти революционный курс по гитаре.
Подарок от PrimaNota.Ru, забирай!